  0
SECTION
  2
HEADER
  9
$ACADVER
  1
AC1009
  9
$INSBASE
 10
0.0
 20
0.0
 30
0.0
  9
$EXTMIN
 10
-800.05492744973753
 20
-1201.987760834849
 30
-0.0015258207003583
  9
$EXTMAX
 10
1000.05493583164
 20
1471.8678425700821
 30
0.0000000349246037
  9
$LIMMIN
 10
0.0
 20
0.0
  9
$LIMMAX
 10
0.0
 20
0.0
  9
$ORTHOMODE
 70
     0
  9
$REGENMODE
 70
     1
  9
$FILLMODE
 70
     1
  9
$QTEXTMODE
 70
     0
  9
$MIRRTEXT
 70
     1
  9
$DRAGMODE
 70
     2
  9
$LTSCALE
 40
50.799999999999997
  9
$OSMODE
 70
   167
  9
$ATTMODE
 70
     1
  9
$TEXTSIZE
 40
0.0
  9
$TRACEWID
 40
1.0
  9
$TEXTSTYLE
  7
STANDARD
  9
$CLAYER
  8
DATA
  9
$CELTYPE
  6
CONTINUOUS
  9
$CECOLOR
 62
   256
  9
$DIMSCALE
 40
1.0
  9
$DIMASZ
 40
0.18
  9
$DIMEXO
 40
0.0625
  9
$DIMDLI
 40
0.38
  9
$DIMRND
 40
0.0
  9
$DIMDLE
 40
0.0
  9
$DIMEXE
 40
0.18
  9
$DIMTP
 40
0.0
  9
$DIMTM
 40
0.0
  9
$DIMTXT
 40
0.18
  9
$DIMCEN
 40
0.09
  9
$DIMTSZ
 40
0.0
  9
$DIMTOL
 70
     0
  9
$DIMLIM
 70
     0
  9
$DIMTIH
 70
     1
  9
$DIMTOH
 70
     1
  9
$DIMSE1
 70
     0
  9
$DIMSE2
 70
     0
  9
$DIMTAD
 70
     0
  9
$DIMZIN
 70
     0
  9
$DIMBLK
  1

  9
$DIMASO
 70
     1
  9
$DIMSHO
 70
     1
  9
$DIMPOST
  1

  9
$DIMAPOST
  1

  9
$DIMALT
 70
     0
  9
$DIMALTD
 70
     2
  9
$DIMALTF
 40
25.399999999999999
  9
$DIMLFAC
 40
1.0
  9
$DIMTOFL
 70
     0
  9
$DIMTVP
 40
0.0
  9
$DIMTIX
 70
     0
  9
$DIMSOXD
 70
     0
  9
$DIMSAH
 70
     0
  9
$DIMBLK1
  1

  9
$DIMBLK2
  1

  9
$DIMSTYLE
  2
STANDARD
  9
$DIMCLRD
 70
     0
  9
$DIMCLRE
 70
     0
  9
$DIMCLRT
 70
     0
  9
$DIMTFAC
 40
1.0
  9
$DIMGAP
 40
0.09
  9
$LUNITS
 70
     2
  9
$LUPREC
 70
     4
  9
$SKETCHINC
 40
0.1
  9
$FILLETRAD
 40
0.0
  9
$AUNITS
 70
     0
  9
$AUPREC
 70
     0
  9
$MENU
  1
acad
  9
$ELEVATION
 40
0.0
  9
$PELEVATION
 40
0.0
  9
$THICKNESS
 40
0.0
  9
$LIMCHECK
 70
     0
  9
$BLIPMODE
 70
     0
  9
$CHAMFERA
 40
0.0
  9
$CHAMFERB
 40
0.0
  9
$SKPOLY
 70
     0
  9
$TDCREATE
 40
2452718.8841666658
  9
$TDUPDATE
 40
2452718.885267939
  9
$TDINDWG
 40
0.0002524306
  9
$TDUSRTIMER
 40
0.0002524306
  9
$USRTIMER
 70
     1
  9
$ANGBASE
 50
0.0
  9
$ANGDIR
 70
     0
  9
$PDMODE
 70
     1
  9
$PDSIZE
 40
-2.0
  9
$PLINEWID
 40
0.0
  9
$COORDS
 70
     0
  9
$SPLFRAME
 70
     0
  9
$SPLINETYPE
 70
     6
  9
$SPLINESEGS
 70
     8
  9
$ATTDIA
 70
     0
  9
$ATTREQ
 70
     1
  9
$HANDLING
 70
     1
  9
$HANDSEED
  5
541
  9
$SURFTAB1
 70
     6
  9
$SURFTAB2
 70
     6
  9
$SURFTYPE
 70
     6
  9
$SURFU
 70
     6
  9
$SURFV
 70
     6
  9
$UCSNAME
  2

  9
$UCSORG
 10
0.0
 20
0.0
 30
0.0
  9
$UCSXDIR
 10
1.0
 20
0.0
 30
0.0
  9
$UCSYDIR
 10
0.0
 20
1.0
 30
0.0
  9
$PUCSNAME
  2

  9
$PUCSORG
 10
0.0
 20
0.0
 30
0.0
  9
$PUCSXDIR
 10
1.0
 20
0.0
 30
0.0
  9
$PUCSYDIR
 10
0.0
 20
1.0
 30
0.0
  9
$USERI1
 70
     0
  9
$USERI2
 70
     0
  9
$USERI3
 70
     0
  9
$USERI4
 70
     0
  9
$USERI5
 70
     0
  9
$USERR1
 40
0.0
  9
$USERR2
 40
0.0
  9
$USERR3
 40
0.0
  9
$USERR4
 40
0.0
  9
$USERR5
 40
0.0
  9
$WORLDVIEW
 70
     1
  9
$SHADEDGE
 70
     3
  9
$SHADEDIF
 70
    70
  9
$TILEMODE
 70
     1
  9
$MAXACTVP
 70
    16
  9
$PLIMCHECK
 70
     0
  9
$PEXTMIN
 10
1.0000000000000000E+020
 20
1.0000000000000000E+020
 30
1.0000000000000000E+020
  9
$PEXTMAX
 10
-1.0000000000000000E+020
 20
-1.0000000000000000E+020
 30
-1.0000000000000000E+020
  9
$PLIMMIN
 10
0.0
 20
0.0
  9
$PLIMMAX
 10
12.0
 20
9.0
  9
$UNITMODE
 70
     0
  9
$VISRETAIN
 70
     0
  9
$PLINEGEN
 70
     1
  9
$PSLTSCALE
 70
     0
  0
ENDSEC
  0
SECTION
  2
TABLES
  0
TABLE
  2
VPORT
 70
     2
  0
VPORT
  2
*ACTIVE
 70
     0
 10
0.0
 20
0.0
 11
1.0
 21
1.0
 12
100.0000041909513
 22
134.94004086761689
 13
0.0
 23
0.0
 14
1.0
 24
1.0
 15
0.0
 25
0.0
 16
0.0
 26
0.0
 36
1.0
 17
0.0
 27
0.0
 37
0.0
 40
2702.606738925414
 41
1.7037701974865349
 42
50.0
 43
0.0
 44
0.0
 50
0.0
 51
0.0
 71
     0
 72
   100
 73
     1
 74
     1
 75
     0
 76
     0
 77
     0
 78
     0
  0
ENDTAB
  0
TABLE
  2
LTYPE
 70
    13
  0
LTYPE
  2
CONTINUOUS
 70
     0
  3
Solid line
 72
    65
 73
     0
 40
0.0
  0
LTYPE
  2
STYLE_01
 70
     0
  3

 72
    65
 73
     2
 40
0.4166412353515625
 49
0.208282470703125
 49
-0.2083587646484375
  0
LTYPE
  2
STYLE_02
 70
     0
  3

 72
    65
 73
     2
 40
0.694427490234375
 49
0.4860687255859375
 49
-0.2083587646484375
  0
LTYPE
  2
STYLE_03
 70
     0
  3

 72
    65
 73
     2
 40
1.25
 49
1.0416412353515621
 49
-0.2083587646484375
  0
LTYPE
  2
STYLE_04
 70
     0
  3

 72
    65
 73
     2
 40
1.5277099609375
 49
1.319427490234375
 49
-0.208282470703125
  0
LTYPE
  2
STYLE_05
 70
     0
  3

 72
    65
 73
     2
 40
0.208282470703125
 49
0.069427490234375
 49
-0.13885498046875
  0
LTYPE
  2
STYLE_06
 70
     0
  3

 72
    65
 73
     4
 40
1.0416412353515621
 49
0.625
 49
-0.208282470703125
 49
0.069427490234375
 49
-0.1389312744140625
  0
LTYPE
  2
STYLE_07
 70
     0
  3

 72
    65
 73
     6
 40
1.875
 49
0.625
 49
-0.208282470703125
 49
0.625
 49
-0.2083587646484375
 49
0.069427490234375
 49
-0.1389312744140625
  0
LTYPE
  2
STYLE_08
 70
     0
  3

 72
    65
 73
     6
 40
1.25
 49
0.625
 49
-0.208282470703125
 49
0.069427490234375
 49
-0.1389312744140625
 49
0.069427490234375
 49
-0.1389312744140625
  0
LTYPE
  2
STYLE_09
 70
     0
  3

 72
    65
 73
     4
 40
5.0
 49
3.75
 49
-0.2777862548828125
 49
0.694427490234375
 49
-0.2777862548828125
  0
LTYPE
  2
STYLE_10
 70
     0
  3

 72
    65
 73
     6
 40
5.9375
 49
3.75
 49
-0.2777862548828125
 49
0.694427490234375
 49
-0.2777862548828125
 49
0.625
 49
-0.3125
  0
LTYPE
  2
STYLE_11
 70
     0
  3

 72
    65
 73
     2
 40
0.2812500000000001
 49
0.1875
 49
-0.09375
  0
LTYPE
  2
STYLE_12
 70
     0
  3

 72
    65
 73
     4
 40
0.7500000000000001
 49
0.3750000000000001
 49
-0.1875
 49
0.0005
 49
-0.187
  0
ENDTAB
  0
TABLE
  2
LAYER
 70
    10
  0
LAYER
  2
0
 70
     0
 62
     7
  6
CONTINUOUS
  0
LAYER
  2
HIBINO-BASE
 70
     0
 62
     7
  6
CONTINUOUS
  0
LAYER
  2
SIDE-DOWN-18_5
 70
     0
 62
     7
  6
CONTINUOUS
  0
LAYER
  2
SIDE-UP18_5
 70
     0
 62
     7
  6
CONTINUOUS
  0
LAYER
  2
TOP22
 70
     0
 62
     7
  6
CONTINUOUS
  0
LAYER
  2
BRACKET
 70
     0
 62
     7
  6
CONTINUOUS
  0
LAYER
  2
PATTERN_FILL
 70
     0
 62
     7
  6
CONTINUOUS
  0
LAYER
  2
SPEC
 70
     0
 62
     7
  6
CONTINUOUS
  0
LAYER
  2
DIMNSIONS
 70
     0
 62
     7
  6
CONTINUOUS
  0
LAYER
  2
DATA
 70
     0
 62
     7
  6
CONTINUOUS
  0
ENDTAB
  0
TABLE
  2
STYLE
 70
     2
  0
STYLE
  2
STANDARD
 70
     0
 40
0.0
 41
1.0
 50
0.0
 71
     0
 42
0.0
  3
txt
  4
BIGFONT.SHX
  0
ENDTAB
  0
TABLE
  2
VIEW
 70
     0
  0
ENDTAB
  0
TABLE
  2
UCS
 70
     0
  0
ENDTAB
  0
TABLE
  2
APPID
 70
     1
  0
APPID
  2
ACAD
 70
     0
  0
ENDTAB
  0
TABLE
  2
DIMSTYLE
 70
     1
  0
DIMSTYLE
  2
STANDARD
 70
     0
  3

  4

  5

  6

  7

 40
1.0
 41
0.18
 42
0.0625
 43
0.38
 44
0.18
 45
0.0
 46
0.0
 47
0.0
 48
0.0
140
0.18
141
0.09
142
0.0
143
25.399999999999999
144
1.0
145
0.0
146
1.0
147
0.09
 71
     0
 72
     0
 73
     1
 74
     1
 75
     0
 76
     0
 77
     0
 78
     0
170
     0
171
     2
172
     0
173
     0
174
     0
175
     0
176
     0
177
     0
178
     0
  0
ENDTAB
  0
ENDSEC
  0
SECTION
  2
BLOCKS
  0
BLOCK
  8
0
  2
$MODEL_SPACE
 70
     0
 10
0.0
 20
0.0
 30
0.0
  3
$MODEL_SPACE
  1

  0
ENDBLK
  5
519
  8
0
  0
BLOCK
 67
     1
  8
0
  2
$PAPER_SPACE
 70
     0
 10
0.0
 20
0.0
 30
0.0
  3
$PAPER_SPACE
  1

  0
ENDBLK
  5
515
 67
     1
  8
0
  0
BLOCK
  8
BRACKET
  2
*U0
 70
     1
 10
0.0
 20
0.0
 30
0.0
  3
*U0
  1

  0
LINE
  5
37
  8
BRACKET
  6
STYLE_11
 62
     7
 10
-601.55000000000018
 20
-93.013295837715305
 30
0.0
 11
-601.55000000000018
 21
-86.017008799999985
 31
0.0
  0
LINE
  5
38
  8
BRACKET
  6
STYLE_11
 62
     7
 10
-619.05000000000007
 20
-93.013295837715305
 30
0.0
 11
-619.05000000000007
 21
-86.017008799999985
 31
0.0
  0
ARC
  5
39
  8
BRACKET
  6
STYLE_11
 62
     7
 10
-610.30000000000007
 20
-17.267008799998841
 30
0.0
 40
76.250000000000838
 50
245.50762136313239
 51
294.49237863686687
  0
LINE
  5
3A
  8
BRACKET
  6
STYLE_11
 62
     7
 10
-600.55000000000018
 20
-107.0170088000004
 30
0.0
 11
-600.55000000000018
 21
-98.017008799999786
 31
0.0
  0
LINE
  5
3B
  8
BRACKET
  6
STYLE_11
 62
     7
 10
-599.80000000000007
 20
-95.517008799999985
 30
0.0
 11
-599.80000000000007
 21
-92.790597830183273
 31
0.0
  0
LINE
  5
3C
  8
BRACKET
  6
STYLE_11
 62
     7
 10
-600.80000000000007
 20
-98.017008799999786
 30
0.0
 11
-600.80000000000007
 21
-95.517008799999985
 31
0.0
  0
LINE
  5
3D
  8
BRACKET
  6
STYLE_11
 62
     7
 10
-605.42500000000018
 20
-107.0170087999997
 30
0.0
 11
-605.42500000000018
 21
-98.017008799999786
 31
0.0
  0
LINE
  5
3E
  8
BRACKET
  6
STYLE_11
 62
     7
 10
-615.17500000000007
 20
-107.0170087999997
 30
0.0
 11
-615.17500000000007
 21
-98.017008799999786
 31
0.0
  0
LINE
  5
3F
  8
BRACKET
  6
STYLE_11
 62
     7
 10
-619.80000000000018
 20
-98.017008799999786
 30
0.0
 11
-619.80000000000018
 21
-95.517008799999985
 31
0.0
  0
LINE
  5
40
  8
BRACKET
  6
STYLE_11
 62
     7
 10
-620.05000000000007
 20
-107.0170087999997
 30
0.0
 11
-620.05000000000007
 21
-98.017008799999786
 31
0.0
  0
LINE
  5
41
  8
BRACKET
  6
STYLE_11
 62
     7
 10
-620.80000000000007
 20
-92.790597830183273
 30
0.0
 11
-620.80000000000007
 21
-95.517008799999985
 31
0.0
  0
LINE
  5
42
  8
BRACKET
  6
STYLE_11
 62
     7
 10
-620.05000000000007
 20
-98.017008799999786
 30
0.0
 11
-600.55000000000018
 21
-98.017008799999786
 31
0.0
  0
LINE
  5
43
  8
BRACKET
  6
STYLE_11
 62
     7
 10
-620.80000000000007
 20
-95.517008799999985
 30
0.0
 11
-599.80000000000007
 21
-95.517008799999985
 31
0.0
  0
LINE
  5
44
  8
BRACKET
  6
STYLE_11
 62
     7
 10
-620.05000000000007
 20
-107.0170087999997
 30
0.0
 11
-600.55000000000018
 21
-107.0170087999997
 31
0.0
  0
LINE
  5
45
  8
BRACKET
  6
STYLE_11
 62
     7
 10
-575.84238135136366
 20
-83.000106232500912
 30
0.0
 11
-575.30000000000007
 21
-80.017008800000198
 31
0.0
  0
ARC
  5
46
  8
BRACKET
  6
STYLE_11
 62
     7
 10
-580.7617309018633
 20
-82.105679041500707
 30
0.0
 40
4.999999999999905
 50
294.49237863686449
 51
349.69515353123251
  0
LINE
  5
47
  8
BRACKET
  6
STYLE_11
 62
     7
 10
-645.30000000000018
 20
-80.017008800000198
 30
0.0
 11
-644.75761864863625
 21
-83.000106232500457
 31
0.0
  0
ARC
  5
48
  8
BRACKET
  6
STYLE_11
 62
     7
 10
-639.83826909813695
 20
-82.10567904150048
 30
0.0
 40
4.9999999999996723
 50
190.30484646876741
 51
245.50762136313531
  0
LINE
  5
49
  8
BRACKET
  6
STYLE_11
 62
     7
 10
-619.05000000000007
 20
-86.017008799999985
 30
0.0
 11
-601.55000000000018
 21
-86.017008799999985
 31
0.0
  0
LINE
  5
4A
  8
BRACKET
  6
STYLE_11
 62
     7
 10
-645.30000000000018
 20
-80.017008800000198
 30
0.0
 11
-575.30000000000007
 21
-80.017008800000198
 31
0.0
  0
CIRCLE
  5
4B
  8
BRACKET
  6
STYLE_11
 62
     7
 10
-610.30000000000007
 20
-158.16700879999999
 30
0.0
 40
17.25
  0
LINE
  5
4C
  8
BRACKET
  6
STYLE_11
 62
     7
 10
-604.80000000000007
 20
-141.81731461325779
 30
0.0
 11
-604.80000000000007
 21
-107.0170087999997
 31
0.0
  0
LINE
  5
4D
  8
BRACKET
  6
STYLE_11
 62
     7
 10
-615.80000000000018
 20
-141.81731461325779
 30
0.0
 11
-615.80000000000018
 21
-107.0170087999997
 31
0.0
  0
LINE
  5
4E
  8
BRACKET
  6
STYLE_11
 62
     7
 10
79.482991200000015
 20
-793.90108470037205
 30
0.0
 11
79.482991200000015
 21
-703.90108470037262
 31
0.0
  0
LINE
  5
4F
  8
BRACKET
  6
STYLE_11
 62
     7
 10
71.482991200000015
 20
-759.40108470037148
 30
0.0
 11
71.482991200000015
 21
-793.90108470037205
 31
0.0
  0
LINE
  5
50
  8
BRACKET
  6
STYLE_11
 62
     7
 10
84.982991200000015
 20
-703.90108470037262
 30
0.0
 11
84.982991200000015
 21
-793.90108470037205
 31
0.0
  0
LINE
  5
51
  8
BRACKET
  6
STYLE_11
 62
     7
 10
71.482991200000015
 20
-793.90108470037205
 30
0.0
 11
84.982991200000015
 21
-793.90108470037205
 31
0.0
  0
LINE
  5
52
  8
BRACKET
  6
STYLE_11
 62
     7
 10
23.182685386742371
 20
-754.40108470037251
 30
0.0
 11
57.98299119999956
 21
-754.40108470037251
 31
0.0
  0
LINE
  5
53
  8
BRACKET
  6
STYLE_11
 62
     7
 10
57.98299119999956
 20
-743.40108470037217
 30
0.0
 11
23.18268538674192
 21
-743.40108470037217
 31
0.0
  0
ARC
  5
54
  8
BRACKET
  6
STYLE_11
 62
     7
 10
6.8329911999999231
 20
-748.90108470037251
 30
0.0
 40
17.250000000000071
 50
18.59282254942736
 51
341.40717745057327
  0
LINE
  5
55
  8
BRACKET
  6
STYLE_11
 62
     7
 10
23.18268538674192
 20
-743.40108470037217
 30
0.0
 11
23.182685386742371
 21
-754.40108470037251
 31
0.0
  0
LINE
  5
56
  8
BRACKET
  6
STYLE_11
 62
     7
 10
71.482991200000015
 20
-703.90108470037262
 30
0.0
 11
84.982991200000015
 21
-703.90108470037262
 31
0.0
  0
LINE
  5
57
  8
BRACKET
  6
STYLE_11
 62
     7
 10
66.98299119999956
 20
-739.40108470037251
 30
0.0
 11
69.48299119999956
 21
-739.40108470037251
 31
0.0
  0
LINE
  5
58
  8
BRACKET
  6
STYLE_11
 62
     7
 10
66.98299119999956
 20
-753.90108470037205
 30
0.0
 11
69.48299119999956
 21
-753.90108470037205
 31
0.0
  0
LINE
  5
59
  8
BRACKET
  6
STYLE_11
 62
     7
 10
66.98299119999956
 20
-758.40108470037171
 30
0.0
 11
69.482991200000015
 21
-758.40108470037171
 31
0.0
  0
LINE
  5
5A
  8
BRACKET
  6
STYLE_11
 62
     7
 10
57.98299119999956
 20
-748.90108470037251
 30
0.0
 11
66.98299119999956
 21
-748.90108470037251
 31
0.0
  0
LINE
  5
5B
  8
BRACKET
  6
STYLE_11
 62
     7
 10
57.98299119999956
 20
-740.4573370134741
 30
0.0
 11
66.98299119999956
 21
-740.4573370134741
 31
0.0
  0
LINE
  5
5C
  8
BRACKET
  6
STYLE_11
 62
     7
 10
57.98299119999956
 20
-757.34483238727023
 30
0.0
 11
66.98299119999956
 21
-757.34483238727023
 31
0.0
  0
LINE
  5
5D
  8
BRACKET
  6
STYLE_11
 62
     7
 10
57.98299119999956
 20
-740.4573370134741
 30
0.0
 11
57.98299119999956
 21
-757.34483238727023
 31
0.0
  0
LINE
  5
5E
  8
BRACKET
  6
STYLE_11
 62
     7
 10
66.98299119999956
 20
-739.40108470037251
 30
0.0
 11
66.98299119999956
 21
-758.40108470037171
 31
0.0
  0
LINE
  5
5F
  8
BRACKET
  6
STYLE_11
 62
     7
 10
71.482991200000015
 20
-703.90108470037262
 30
0.0
 11
71.482991200000015
 21
-738.40108470037217
 31
0.0
  0
LINE
  5
60
  8
BRACKET
  6
STYLE_11
 62
     7
 10
71.615865492828092
 20
-739.90108470037262
 30
0.0
 11
79.482991200000015
 21
-739.90108470037262
 31
0.0
  0
LINE
  5
61
  8
BRACKET
  6
STYLE_11
 62
     7
 10
71.615865492828092
 20
-757.90108470037205
 30
0.0
 11
79.482991200000015
 21
-757.90108470037205
 31
0.0
  0
LINE
  5
62
  8
BRACKET
  6
STYLE_11
 62
     7
 10
71.482991200000015
 20
-738.40108470037217
 30
0.0
 11
69.48299119999956
 21
-738.40108470037217
 31
0.0
  0
LINE
  5
63
  8
BRACKET
  6
STYLE_11
 62
     7
 10
69.482991200000015
 20
-759.40108470037148
 30
0.0
 11
71.482991200000015
 21
-759.40108470037148
 31
0.0
  0
LINE
  5
64
  8
BRACKET
  6
STYLE_11
 62
     7
 10
69.48299119999956
 20
-738.40108470037239
 30
0.0
 11
69.48299119999956
 21
-759.40108470037148
 31
0.0
  0
ARC
  5
65
  8
BRACKET
  6
STYLE_11
 62
     7
 10
-38.517008800021358
 20
-748.90108470037273
 30
0.0
 40
110.5000000000212
 50
354.54737801218869
 51
5.4526219878118241
  0
ENDBLK
  5
66
  8
BRACKET
  0
BLOCK
  8
PATTERN_FILL
  2
*U1
 70
     1
 10
0.0
 20
0.0
 30
0.0
  3
*U1
  1

  0
LINE
  5
68
  8
PATTERN_FILL
  6
CONTINUOUS
 62
     7
 10
329.84530166345593
 20
393.40125326438312
 30
0.0
 11
333.26474673561569
 21
396.82069833654282
 31
0.0
  0
LINE
  5
69
  8
PATTERN_FILL
  6
CONTINUOUS
 62
     7
 10
330.21967983583852
 20
392.36141787439249
 30
0.0
 11
334.3045821256062
 21
396.44632016416023
 31
0.0
  0
LINE
  5
6A
  8
PATTERN_FILL
  6
CONTINUOUS
 62
     7
 10
330.63389339821163
 20
391.3614178743926
 30
0.0
 11
335.3045821256062
 21
396.03210660178718
 31
0.0
  0
LINE
  5
6B
  8
PATTERN_FILL
  6
CONTINUOUS
 62
     7
 10
331.33274999999969
 20
390.64606091380762
 30
0.0
 11
336.0199390861909
 21
395.33324999999871
 31
0.0
  0
LINE
  5
6C
  8
PATTERN_FILL
  6
CONTINUOUS
 62
     7
 10
332.33274999999981
 20
390.23184735143451
 30
0.0
 11
336.43415264856412
 21
394.33324999999883
 31
0.0
  0
LINE
  5
6D
  8
PATTERN_FILL
  6
CONTINUOUS
 62
     7
 10
333.33275000000009
 20
389.81763378906169
 30
0.0
 11
336.84836621093712
 21
393.33324999999871
 31
0.0
  0
LINE
  5
6E
  8
PATTERN_FILL
  6
CONTINUOUS
 62
     7
 10
335.74696356237308
 20
390.81763378906157
 30
0.0
 11
335.84836621093712
 21
390.91903643762561
 31
0.0
  0
ENDBLK
  5
6F
  8
PATTERN_FILL
  0
BLOCK
  8
PATTERN_FILL
  2
*U2
 70
     1
 10
0.0
 20
0.0
 30
0.0
  3
*U2
  1

  0
LINE
  5
71
  8
PATTERN_FILL
  6
CONTINUOUS
 62
     7
 10
346.98322930324798
 20
194.5395784893521
 30
0.0
 11
348.79354651064659
 21
196.34989569675059
 31
0.0
  0
LINE
  5
72
  8
PATTERN_FILL
  6
CONTINUOUS
 62
     7
 10
346.69108489045402
 20
192.83322051418489
 30
0.0
 11
350.49990448581372
 21
196.64204010954461
 31
0.0
  0
LINE
  5
73
  8
PATTERN_FILL
  6
CONTINUOUS
 62
     7
 10
347.10529845282718
 20
191.8332205141848
 30
0.0
 11
351.49990448581372
 21
196.2278265471715
 31
0.0
  0
LINE
  5
74
  8
PATTERN_FILL
  6
CONTINUOUS
 62
     7
 10
347.52807236020732
 20
190.841780859192
 30
0.0
 11
352.49134414080658
 21
195.8050526397914
 31
0.0
  0
LINE
  5
75
  8
PATTERN_FILL
  6
CONTINUOUS
 62
     7
 10
348.52807236020732
 20
190.42756729681889
 30
0.0
 11
352.90555770317968
 21
194.8050526397914
 31
0.0
  0
LINE
  5
76
  8
PATTERN_FILL
  6
CONTINUOUS
 62
     7
 10
349.52807236020732
 20
190.01335373444579
 30
0.0
 11
353.3197712655529
 21
193.8050526397914
 31
0.0
  0
LINE
  5
77
  8
PATTERN_FILL
  6
CONTINUOUS
 62
     7
 10
351.27576333740399
 20
190.34683114926941
 30
0.0
 11
352.98629385072923
 21
192.0573616625947
 31
0.0
  0
ENDBLK
  5
78
  8
PATTERN_FILL
  0
ENDSEC
  0
SECTION
  2
ENTITIES
  0
LINE
  5
79
  8
HIBINO-BASE
 62
     7
 10
-800.0
 20
1471.786335
 30
0.0
 11
1000.0
 21
1471.786335
 31
0.0
  0
LINE
  5
7A
  8
HIBINO-BASE
 62
     7
 10
1000.0
 20
-1128.213665
 30
0.0
 11
-800.0
 21
-1128.213665
 31
0.0
  0
LINE
  5
7B
  8
HIBINO-BASE
 62
     7
 10
-800.0
 20
-1128.213665
 30
0.0
 11
-800.0
 21
1471.786335
 31
0.0
  0
TEXT
  5
7C
  8
HIBINO-BASE
 62
     7
 10
-728.15999999999985
 20
-1189.493504999999
 30
0.0
 40
37.425840000000001
  1
Hibino Corporation
 41
0.85
 11
-728.15999999999985
 21
-1152.0676649999989
 31
0.0
 73
     3
  0
LINE
  5
7D
  8
HIBINO-BASE
 62
     7
 10
1000.0
 20
1471.786335
 30
0.0
 11
1000.0
 21
-1128.213665
 31
0.0
  0
LINE
  5
7E
  8
HIBINO-BASE
 62
     7
 10
100.0
 20
-903.21366500000011
 30
0.0
 11
1000.0
 21
-903.21366500000011
 31
0.0
  0
LINE
  5
7F
  8
HIBINO-BASE
 62
     7
 10
100.0
 20
-1128.213665
 30
0.0
 11
100.0
 21
-903.21366500000011
 31
0.0
  0
TEXT
  5
80
  8
HIBINO-BASE
 62
     7
 10
109.0
 20
-927.03059833333327
 30
0.0
 40
16.93333333333333
  1
NOTE
 41
0.85
 11
109.0
 21
-910.09726499999999
 31
0.0
 73
     3
  0
LINE
  5
81
  8
HIBINO-BASE
 62
     7
 10
450.0
 20
-1128.213665
 30
0.0
 11
450.0
 21
-903.21366500000011
 31
0.0
  0
TEXT
  5
82
  8
HIBINO-BASE
 62
     7
 10
459.0
 20
-927.03059833333327
 30
0.0
 40
16.93333333333333
  1
TITLE
 41
0.85
 11
459.0
 21
-910.09726499999999
 31
0.0
 73
     3
  0
TEXT
  5
83
  8
HIBINO-BASE
 62
     7
 10
600.68389999999988
 20
-1189.493504999999
 30
0.0
 40
37.425840000000001
  1
ヒビノ株式会社
 41
0.85
 11
600.68389999999988
 21
-1152.0676649999989
 31
0.0
 73
     3
  0
LINE
  5
84
  8
HIBINO-BASE
 62
     7
 10
100.0
 20
-1028.2136649999991
 30
0.0
 11
1000.0
 21
-1028.2136649999991
 31
0.0
  0
TEXT
  5
85
  8
HIBINO-BASE
 62
     7
 10
584.0
 20
-1051.467398333333
 30
0.0
 40
16.93333333333333
  1
DRAWN
 41
0.85
 11
584.0
 21
-1034.5340650000001
 31
0.0
 73
     3
  0
TEXT
  5
86
  8
HIBINO-BASE
 62
     7
 10
334.0
 20
-1051.467398333333
 30
0.0
 40
16.93333333333333
  1
DATE
 41
0.85
 11
334.0
 21
-1034.5340650000001
 31
0.0
 73
     3
  0
TEXT
  5
87
  8
HIBINO-BASE
 62
     7
 10
111.0
 20
-1053.1382249999999
 30
0.0
 40
16.93335999999999
  1
図面サイズ
 41
0.85
 11
111.0
 21
-1036.204864999999
 31
0.0
 73
     3
  0
TEXT
  5
88
  8
HIBINO-BASE
 62
     7
 10
234.0
 20
-1051.467398333333
 30
0.0
 40
16.93333333333333
  1
SCALE
 41
0.85
 11
234.0
 21
-1034.5340650000001
 31
0.0
 73
     3
  0
TEXT
  5
89
  8
HIBINO-BASE
 62
     7
 10
459.0
 20
-1051.467398333333
 30
0.0
 40
16.93333333333333
  1
DESIGN
 41
0.85
 11
459.0
 21
-1034.5340650000001
 31
0.0
 73
     3
  0
TEXT
  5
8A
  8
HIBINO-BASE
 62
     7
 10
834.0
 20
-1051.467398333333
 30
0.0
 40
16.93333333333333
  1
DRAWING NO.
 41
0.85
 11
834.0
 21
-1034.5340650000001
 31
0.0
 73
     3
  0
TEXT
  5
8B
  8
HIBINO-BASE
 62
     7
 10
708.99999999999977
 20
-1051.467398333333
 30
0.0
 40
16.93333333333333
  1
CHECK
 41
0.85
 11
708.99999999999977
 21
-1034.5340650000001
 31
0.0
 73
     3
  0
LINE
  5
8C
  8
HIBINO-BASE
 62
     7
 10
243.74999999999989
 20
-1115.713665
 30
0.0
 11
281.25
 21
-1078.213665
 31
0.0
  0
TEXT
  5
8D
  8
HIBINO-BASE
 62
     7
 10
237.49999999999989
 20
-1088.0330983333331
 30
0.0
 40
16.93333333333333
  1
1
 41
0.85
 11
237.49999999999989
 21
-1071.0997649999999
 31
0.0
 73
     3
  0
LINE
  5
8E
  8
HIBINO-BASE
 62
     7
 10
225.0
 20
-1128.213665
 30
0.0
 11
225.0
 21
-1028.2136649999991
 31
0.0
  0
LINE
  5
8F
  8
HIBINO-BASE
 62
     7
 10
324.99999999999989
 20
-1128.213665
 30
0.0
 11
324.99999999999989
 21
-1028.2136649999991
 31
0.0
  0
LINE
  5
90
  8
HIBINO-BASE
 62
     7
 10
574.99999999999989
 20
-1028.2136649999991
 30
0.0
 11
574.99999999999989
 21
-1128.213665
 31
0.0
  0
LINE
  5
91
  8
HIBINO-BASE
 62
     7
 10
825.0
 20
-1028.2136649999991
 30
0.0
 11
825.0
 21
-1128.213665
 31
0.0
  0
LINE
  5
92
  8
HIBINO-BASE
 62
     7
 10
699.99999999999989
 20
-1128.213665
 30
0.0
 11
699.99999999999989
 21
-1028.2136649999991
 31
0.0
  0
TEXT
  5
93
  8
HIBINO-BASE
 62
     7
 10
333.5653999999999
 20
-1098.307198333333
 30
0.0
 40
16.93333333333333
  1
'99.10.
 41
0.85
 11
333.5653999999999
 21
-1081.373865
 31
0.0
 73
     3
  0
TEXT
  5
94
  8
HIBINO-BASE
 62
     7
 10
275.0
 20
-1106.7830983333331
 30
0.0
 40
16.93333333333333
  1
10
 41
0.85
 11
275.0
 21
-1089.8497649999999
 31
0.0
 73
     3
  0
TEXT
  5
95
  8
HIBINO-BASE
 62
     7
 10
590.05810011034623
 20
-1098.307198333333
 30
0.0
 40
16.93333333333333
  1
N.Sasaki
 41
0.85
 11
590.05810011034623
 21
-1081.373865
 31
0.0
 73
     3
  0
TEXT
  5
96
  8
HIBINO-BASE
 62
     7
 10
138.8333333333334
 20
-1105.913665
 30
0.0
 40
33.86666666666666
  1
A4
 41
0.85
 11
138.8333333333334
 21
-1072.046998333333
 31
0.0
 73
     3
  0
LINE
  5
97
  8
SIDE-DOWN-18_5
 62
     7
 10
-17.740235898560069
 20
-852.08229045787891
 30
0.0
 11
175.15954355932669
 21
-768.20706855994069
 31
0.0
  0
TEXT
  5
98
  8
SIDE-DOWN-18_5
 62
     7
 10
-168.95751953125
 20
-865.106201171875
 30
0.0
 40
16.11328125
  1
注1
 50
90.0
 41
0.85
 11
-185.07080078125
 21
-865.106201171875
 31
0.0
 73
     3
  0
ARC
  5
99
  8
SIDE-DOWN-18_5
 62
     7
 10
-28.257881642976841
 20
-848.99564159616637
 30
0.0
 40
2.5400000000000769
 50
198.49999999999909
 51
288.50000000000563
  0
LINE
  5
9A
  8
SIDE-DOWN-18_5
 62
     7
 10
-17.842829368797549
 20
-848.18922431541921
 30
0.0
 11
-27.451927815708139
 21
-851.40438368039008
 31
0.0
  0
ARC
  5
9B
  8
SIDE-DOWN-18_5
 62
     7
 10
-19.00627429250472
 20
-849.17063713440155
 30
0.0
 40
3.1749999999997911
 50
198.5000000000019
 51
293.50000000000068
  0
LINE
  5
9C
  8
SIDE-DOWN-18_5
 62
     7
 10
-22.017201897784169
 20
-850.17807941848764
 30
0.0
 11
-22.195378140147579
 21
-849.64556676221753
 31
0.0
  0
LINE
  5
9D
  8
SIDE-DOWN-18_5
 62
     7
 10
11.58954833572896
 20
-801.23424207032406
 30
0.0
 11
22.717085252947509
 21
-834.49094432718152
 31
0.0
  0
LINE
  5
9E
  8
SIDE-DOWN-18_5
 62
     7
 10
-18.107618580296741
 20
-803.83240890537365
 30
0.0
 11
-3.9672181206765482
 21
-846.09361112620343
 31
0.0
  0
LINE
  5
9F
  8
SIDE-DOWN-18_5
 62
     7
 10
-32.269837136471793
 20
-805.07144314279515
 30
0.0
 11
-17.842829368797549
 21
-848.18922431541921
 31
0.0
  0
LINE
  5
A0
  8
SIDE-DOWN-18_5
 62
     7
 10
-45.253061335221453
 20
-806.20732868435539
 30
0.0
 11
-30.666623727200211
 21
-849.8015954234354
 31
0.0
  0
LINE
  5
A1
  8
SIDE-DOWN-18_5
 62
     7
 10
-138.8019558272558
 20
-490.26694854319328
 30
0.0
 11
-110.0000000000004
 21
-483.35221214515542
 31
0.0
  0
LINE
  5
A2
  8
SIDE-DOWN-18_5
 62
     7
 10
-136.5409768654913
 20
-493.43785578661169
 30
0.0
 11
-110.0
 21
-572.76047424101273
 31
0.0
  0
LINE
  5
A3
  8
SIDE-DOWN-18_5
 62
     7
 10
-147.75286356935661
 20
-499.86771106307521
 30
0.0
 11
-110.0
 21
-612.6991267132945
 31
0.0
  0
ARC
  5
A4
  8
SIDE-DOWN-18_5
 62
     7
 10
-145.3441214851332
 20
-499.06175723580623
 30
0.0
 40
2.540000000000004
 50
108.4999999999942
 51
198.50000000000239
  0
LINE
  5
A5
  8
SIDE-DOWN-18_5
 62
     7
 10
-146.15007531240181
 20
-496.65301515158251
 30
0.0
 11
-136.5409768654913
 21
-493.43785578661169
 31
0.0
  0
ARC
  5
A6
  8
SIDE-DOWN-18_5
 62
     7
 10
-138.06077427392569
 20
-493.35424329305391
 30
0.0
 40
3.1749999999999159
 50
103.4999999999978
 51
198.5000000000019
  0
LINE
  5
A7
  8
SIDE-DOWN-18_5
 62
     7
 10
-141.07170187920559
 20
-494.36168557714012
 30
0.0
 11
-140.89352563684179
 21
-494.89419823341012
 31
0.0
  0
LINE
  5
A8
  8
SIDE-DOWN-18_5
 62
     7
 10
-124.198257558683
 20
-486.76091150288551
 30
0.0
 11
-110.0000000000004
 21
-529.19503036567255
 31
0.0
  0
LINE
  5
A9
  8
SIDE-DOWN-18_5
 62
     7
 10
130.1037617361207
 20
-624.40108470037262
 30
0.0
 11
176.90719060813669
 21
-764.28178877497271
 31
0.0
  0
ARC
  5
AA
  8
SIDE-DOWN-18_5
 62
     7
 10
173.8915213845807
 20
-765.29081758234065
 30
0.0
 40
3.1800000000001858
 50
293.50000266343619
 51
18.499999999994252
  0
LINE
  5
AB
  8
SIDE-DOWN-18_5
 62
     7
 10
-108.74200880000031
 20
-799.99999999999125
 30
0.0
 11
-145.0
 21
-799.99999999999125
 31
0.0
  0
LINE
  5
AC
  8
SIDE-DOWN-18_5
 62
     7
 10
-39.006274292504727
 20
-852.34563713439275
 30
0.0
 11
-145.0
 21
-852.34563713439275
 31
0.0
  0
LINE
  5
AE
  8
SIDE-DOWN-18_5
 62
     7
 10
-125.0
 20
-799.99999999999125
 30
0.0
 11
-118.2996020484976
 21
-825.00622558592875
 31
0.0
  0
LINE
  5
AF
  8
SIDE-DOWN-18_5
 62
     7
 10
-125.0
 20
-799.99999999999125
 30
0.0
 11
-131.7003979515024
 21
-825.00622558592875
 31
0.0
  0
LINE
  5
B0
  8
SIDE-DOWN-18_5
 62
     7
 10
-125.0
 20
-852.34563713439275
 30
0.0
 11
-131.7003979515024
 21
-827.3394115484549
 31
0.0
  0
LINE
  5
B1
  8
SIDE-DOWN-18_5
 62
     7
 10
-125.0
 20
-852.34563713439275
 30
0.0
 11
-118.2996020484976
 21
-827.3394115484549
 31
0.0
  0
LINE
  5
AD
  8
SIDE-DOWN-18_5
 62
     7
 10
-125.0
 20
-799.99999999999125
 30
0.0
 11
-125.0
 21
-852.34563713439275
 31
0.0
  0
TEXT
  5
B2
  8
SIDE-DOWN-18_5
 62
     7
 10
-137.05555555555549
 20
-843.81170745608074
 30
0.0
 40
28.222222222222221
  1
52
 50
90.0
 41
0.85
 11
-165.27777777777769
 21
-843.81170745608074
 31
0.0
 73
     3
  0
LINE
  5
B3
  8
SIDE-UP18_5
 62
     7
 10
-17.9439946064963
 20
-366.32884952930328
 30
0.0
 11
174.9557848513895
 21
-450.2040714272452
 31
0.0
  0
LINE
  5
B4
  8
SIDE-UP18_5
 62
     7
 10
-147.95663033683101
 20
-718.5434530115283
 30
0.0
 11
-110.0
 21
-605.10304268745051
 31
0.0
  0
LINE
  5
B5
  8
SIDE-UP18_5
 62
     7
 10
-136.74474363296619
 20
-724.97330828799193
 30
0.0
 11
-110.0
 21
-645.04169515973194
 31
0.0
  0
LINE
  5
B6
  8
SIDE-UP18_5
 62
     7
 10
-139.00571453519251
 20
-728.14419144398914
 30
0.0
 11
-110.0
 21
-735.10784596976316
 31
0.0
  0
ARC
  5
B7
  8
SIDE-UP18_5
 62
     7
 10
-145.54788825260761
 20
-719.34940683879734
 30
0.0
 40
2.5400000000000769
 50
161.50000000000091
 51
251.50000000000401
  0
LINE
  5
B8
  8
SIDE-UP18_5
 62
     7
 10
-136.74474363296619
 20
-724.97330828799193
 30
0.0
 11
-146.3538420798763
 21
-721.75814892302083
 31
0.0
  0
ARC
  5
B9
  8
SIDE-UP18_5
 62
     7
 10
-138.26454104140021
 20
-725.05692078154948
 30
0.0
 40
3.1750000000002219
 50
161.50000000000051
 51
256.49999999999397
  0
LINE
  5
BA
  8
SIDE-UP18_5
 62
     7
 10
-141.27546864668051
 20
-724.04947849746316
 30
0.0
 11
-141.09729240431659
 21
-723.51696584119338
 31
0.0
  0
LINE
  5
BB
  8
SIDE-UP18_5
 62
     7
 10
-124.4020162666197
 20
-731.65022848429714
 30
0.0
 11
-110.0000000000004
 21
-688.60713903507281
 31
0.0
  0
TEXT
  5
BC
  8
SIDE-UP18_5
 62
     7
 10
-243.95751953125
 20
-440.106201171875
 30
0.0
 40
16.11328125
  1
注1
 50
90.0
 41
0.85
 11
-260.07080078125
 21
-440.106201171875
 31
0.0
 73
     3
  0
TEXT
  5
BD
  8
SIDE-UP18_5
 62
     7
 10
-165.106201171875
 20
-281.04248046875
 30
0.0
 40
16.11328125
  1
注1
 41
0.85
 11
-165.106201171875
 21
-264.92919921875
 31
0.0
 73
     3
  0
ARC
  5
BE
  8
SIDE-UP18_5
 62
     7
 10
-28.4616484104513
 20
-369.41552247843691
 30
0.0
 40
2.5399999999997891
 50
71.500000000004093
 51
161.50000000000571
  0
LINE
  5
BF
  8
SIDE-UP18_5
 62
     7
 10
-27.655694583182608
 20
-367.00678039421342
 30
0.0
 11
-18.046596136272012
 21
-370.22193975918401
 31
0.0
  0
ARC
  5
C0
  8
SIDE-UP18_5
 62
     7
 10
-19.210041059979179
 20
-369.24052694020219
 30
0.0
 40
3.1750000000000922
 50
66.49999999999919
 51
161.50000000000051
  0
LINE
  5
C1
  8
SIDE-UP18_5
 62
     7
 10
-22.22096866525909
 20
-368.23308465611598
 30
0.0
 11
-22.3991449076225
 21
-368.76559731238581
 31
0.0
  0
LINE
  5
C2
  8
SIDE-UP18_5
 62
     7
 10
11.380797183325271
 20
-417.1918187605657
 30
0.0
 11
22.51332654501083
 21
-383.92019566000153
 31
0.0
  0
LINE
  5
C3
  8
SIDE-UP18_5
 62
     7
 10
-18.316369732700888
 20
-414.59365192551593
 30
0.0
 11
-4.1709768286132336
 21
-372.31752886097939
 31
0.0
  0
LINE
  5
C4
  8
SIDE-UP18_5
 62
     7
 10
-32.47858828887594
 20
-413.35461768809432
 30
0.0
 11
-18.046596136272012
 21
-370.22193975918401
 31
0.0
  0
LINE
  5
C5
  8
SIDE-UP18_5
 62
     7
 10
-45.461812487625153
 20
-412.21873214653408
 30
0.0
 11
-30.870390494675132
 21
-368.60956865116822
 31
0.0
  0
ARC
  5
C6
  8
SIDE-UP18_5
 62
     7
 10
173.6877626766431
 20
-453.12032240484518
 30
0.0
 40
3.1799999999997222
 50
341.50000000000318
 51
66.499997336571184
  0
LINE
  5
C7
  8
SIDE-UP18_5
 62
     7
 10
130.1037617361203
 20
-593.40108470037228
 30
0.0
 11
176.70343190019861
 21
-454.12935121221301
 31
0.0
  0
LINE
  5
C8
  8
SIDE-UP18_5
 62
     7
 10
-39.210041059979183
 20
-366.06552694020172
 30
0.0
 11
-220.0
 21
-366.06552694020172
 31
0.0
  0
LINE
  5
C9
  8
SIDE-UP18_5
 62
     7
 10
-108.74200880000031
 20
-418.44434959999961
 30
0.0
 11
-220.0
 21
-418.44434959999961
 31
0.0
  0
LINE
  5
CB
  8
SIDE-UP18_5
 62
     7
 10
-200.0
 20
-366.06552694020172
 30
0.0
 11
-193.29960204849749
 21
-391.07175252613939
 31
0.0
  0
LINE
  5
CC
  8
SIDE-UP18_5
 62
     7
 10
-200.0
 20
-366.06552694020172
 30
0.0
 11
-206.7003979515024
 21
-391.07175252613922
 31
0.0
  0
LINE
  5
CD
  8
SIDE-UP18_5
 62
     7
 10
-200.0
 20
-418.44434959999961
 30
0.0
 11
-206.7003979515024
 21
-393.43812401406211
 31
0.0
  0
LINE
  5
CE
  8
SIDE-UP18_5
 62
     7
 10
-200.0
 20
-418.44434959999961
 30
0.0
 11
-193.29960204849749
 21
-393.43812401406211
 31
0.0
  0
LINE
  5
CA
  8
SIDE-UP18_5
 62
     7
 10
-200.0
 20
-366.06552694020172
 30
0.0
 11
-200.0
 21
-418.44434959999961
 31
0.0
  0
TEXT
  5
CF
  8
SIDE-UP18_5
 62
     7
 10
-212.0555555555556
 20
-409.89382715898972
 30
0.0
 40
28.222222222222221
  1
52
 50
90.0
 41
0.85
 11
-240.2777777777778
 21
-409.89382715898972
 31
0.0
 73
     3
  0
LINE
  5
D0
  8
SIDE-UP18_5
 62
     7
 10
-148.08788825260669
 20
-699.34940683879734
 30
0.0
 11
-148.08788825260669
 21
-305.0
 31
0.0
  0
LINE
  5
D1
  8
SIDE-UP18_5
 62
     7
 10
-100.0
 20
-404.7208801000001
 30
0.0
 11
-100.0
 21
-305.0
 31
0.0
  0
LINE
  5
D2
  8
SIDE-UP18_5
 62
     7
 10
-100.0
 20
-325.0
 30
0.0
 11
-148.08788825260669
 21
-325.0
 31
0.0
  0
LINE
  5
D4
  8
SIDE-UP18_5
 62
     7
 10
-148.08788825260669
 20
-325.0
 30
0.0
 11
-173.09411383854419
 21
-331.70039795150228
 31
0.0
  0
LINE
  5
D5
  8
SIDE-UP18_5
 62
     7
 10
-148.08788825260669
 20
-325.0
 30
0.0
 11
-173.09411383854419
 21
-318.2996020484976
 31
0.0
  0
LINE
  5
D3
  8
SIDE-UP18_5
 62
     7
 10
-148.08788825260669
 20
-325.0
 30
0.0
 11
-198.0878882526066
 21
-325.0
 31
0.0
  0
LINE
  5
D7
  8
SIDE-UP18_5
 62
     7
 10
-100.0
 20
-325.0
 30
0.0
 11
-74.993774414062514
 21
-318.2996020484976
 31
0.0
  0
LINE
  5
D8
  8
SIDE-UP18_5
 62
     7
 10
-100.0
 20
-325.0
 30
0.0
 11
-74.993774414062514
 21
-331.70039795150228
 31
0.0
  0
LINE
  5
D6
  8
SIDE-UP18_5
 62
     7
 10
-100.0
 20
-325.0
 30
0.0
 11
-50.000000000000021
 21
-325.0
 31
0.0
  0
TEXT
  5
D9
  8
SIDE-UP18_5
 62
     7
 10
-141.68283301519219
 20
-312.9444444444444
 30
0.0
 40
28.222222222222221
  1
48
 41
0.85
 11
-141.68283301519219
 21
-284.72222222222217
 31
0.0
 73
     3
  0
LINE
  5
DA
  8
TOP22
 62
     7
 10
-443.1850801143828
 20
14.19961644310319
 30
0.0
 11
-324.07577642397922
 21
-106.1635737518704
 31
0.0
  0
TEXT
  5
DB
  8
TOP22
 62
     7
 10
-371.56577462953447
 20
-340.106201171875
 30
0.0
 40
16.11328125
  1
注1
 50
90.0
 41
0.85
 11
-387.67905587953447
 21
-340.106201171875
 31
0.0
 73
     3
  0
ARC
  5
DC
  8
TOP22
 62
     7
 10
-1685.9898825335581
 20
2891.7675631533539
 30
0.0
 40
3345.2985259703141
 50
289.78477805530872
 51
290.82560673770729
  0
LINE
  5
DD
  8
TOP22
 62
     7
 10
-553.64667034998911
 20
-256.0604305084604
 30
0.0
 11
-555.02138444391119
 21
-252.65789372738661
 31
0.0
  0
ARC
  5
DE
  8
TOP22
 62
     7
 10
-1686.926399017098
 20
2894.0855227897709
 30
0.0
 40
3345.2985259703141
 50
289.87458367191772
 51
290.7126142303137
  0
LINE
  5
DF
  8
TOP22
 62
     7
 10
-570.9388713213516
 20
-234.45036671864611
 30
0.0
 11
-565.00790805055556
 21
-245.94139754412771
 31
0.0
  0
ARC
  5
E0
  8
TOP22
 62
     7
 10
-553.90019264236878
 20
-240.20827811307339
 30
0.0
 40
12.5
 50
207.30000000000069
 51
289.87458367191141
  0
ARC
  5
E1
  8
TOP22
 62
     7
 10
-457.40106959184283
 20
0.131722386893216
 30
0.0
 40
20.000000000000011
 50
44.699999999999541
 51
111.9999999999997
  0
LINE
  5
E2
  8
TOP22
 62
     7
 10
-494.80000000000013
 20
6.5922685373654977
 30
0.0
 11
-464.89320146016092
 21
18.675399478228879
 31
0.0
  0
ARC
  5
E3
  8
TOP22
 62
     7
 10
-1685.9898825335581
 20
2891.7675631533539
 30
0.0
 40
3345.2985259703141
 50
293.32202454753718
 51
294.21522194469128
  0
ARC
  5
E4
  8
TOP22
 62
     7
 10
-1686.926399017098
 20
2894.0855227897709
 30
0.0
 40
3345.298525970315
 50
293.34439939044961
 51
294.12541632808222
  0
LINE
  5
E5
  8
TOP22
 62
     7
 10
-313.86435813817968
 20
-159.18208788349551
 30
0.0
 11
-315.23907223210188
 21
-155.77955110242209
 31
0.0
  0
ARC
  5
E6
  8
TOP22
 62
     7
 10
-324.69381981424482
 20
-147.60289236196061
 30
0.0
 40
12.49999999999997
 50
294.12541632808149
 51
16.699999999999299
  0
LINE
  5
E7
  8
TOP22
 62
     7
 10
-312.72103862867829
 20
-144.01088586383929
 30
0.0
 11
-324.07577642397922
 21
-106.1635737518704
 31
0.0
  0
TEXT
  5
E8
  8
TOP22
 62
     7
 10
-315.106201171875
 20
-81.04248046875
 30
0.0
 40
16.11328125
  1
注1
 41
0.85
 11
-315.106201171875
 21
-64.92919921875
 31
0.0
 73
     3
  0
LINE
  5
E9
  8
TOP22
 62
     7
 10
-490.30000000000013
 20
-225.0
 30
0.0
 11
-305.0
 21
-225.0
 31
0.0
  0
LINE
  5
EA
  8
TOP22
 62
     7
 10
-533.64667034998899
 20
-256.0604305084604
 30
0.0
 11
-305.0
 21
-256.0604305084604
 31
0.0
  0
LINE
  5
EB
  8
TOP22
 62
     7
 10
-325.0
 20
-256.0604305084604
 30
0.0
 11
-325.0
 21
-225.0
 31
0.0
  0
LINE
  5
ED
  8
TOP22
 62
     7
 10
-325.0
 20
-225.0
 30
0.0
 11
-331.70039795150228
 21
-199.99377441406239
 31
0.0
  0
LINE
  5
EE
  8
TOP22
 62
     7
 10
-325.0
 20
-225.0
 30
0.0
 11
-318.2996020484976
 21
-199.99377441406239
 31
0.0
  0
LINE
  5
EC
  8
TOP22
 62
     7
 10
-325.0
 20
-225.0
 30
0.0
 11
-325.0
 21
-175.0
 31
0.0
  0
LINE
  5
F0
  8
TOP22
 62
     7
 10
-325.0
 20
-256.0604305084604
 30
0.0
 11
-318.2996020484976
 21
-281.06665609439801
 31
0.0
  0
LINE
  5
F1
  8
TOP22
 62
     7
 10
-325.0
 20
-256.0604305084604
 30
0.0
 11
-331.70039795150228
 21
-281.06665609439801
 31
0.0
  0
LINE
  5
EF
  8
TOP22
 62
     7
 10
-325.0
 20
-256.0604305084604
 30
0.0
 11
-325.0
 21
-335.27777777777771
 31
0.0
  0
TEXT
  5
F2
  8
TOP22
 62
     7
 10
-337.05555555555549
 20
-335.27777777777783
 30
0.0
 40
28.222222222222221
  1
31
 50
90.0
 41
0.85
 11
-365.27777777777771
 21
-335.27777777777783
 31
0.0
 73
     3
  0
LINE
  5
F3
  8
TOP22
 62
     7
 10
-312.19381981424482
 20
-127.6028923619605
 30
0.0
 11
-312.19381981424482
 21
-105.0
 31
0.0
  0
LINE
  5
F4
  8
TOP22
 62
     7
 10
-370.59999999999991
 20
-149.5168250860481
 30
0.0
 11
-370.59999999999991
 21
-105.0
 31
0.0
  0
LINE
  5
F5
  8
TOP22
 62
     7
 10
-312.19381981424482
 20
-125.0
 30
0.0
 11
-264.72222222222217
 21
-125.0
 31
0.0
  0
LINE
  5
F7
  8
TOP22
 62
     7
 10
-312.19381981424482
 20
-125.0
 30
0.0
 11
-337.2000454001822
 21
-131.7003979515024
 31
0.0
  0
LINE
  5
F8
  8
TOP22
 62
     7
 10
-312.19381981424482
 20
-125.0
 30
0.0
 11
-337.2000454001822
 21
-118.2996020484975
 31
0.0
  0
LINE
  5
F9
  8
TOP22
 62
     7
 10
-370.59999999999991
 20
-125.0
 30
0.0
 11
-345.5937744140623
 21
-118.2996020484975
 31
0.0
  0
LINE
  5
FA
  8
TOP22
 62
     7
 10
-370.59999999999991
 20
-125.0
 30
0.0
 11
-345.5937744140623
 21
-131.7003979515024
 31
0.0
  0
LINE
  5
F6
  8
TOP22
 62
     7
 10
-312.19381981424482
 20
-125.0
 30
0.0
 11
-370.59999999999991
 21
-125.0
 31
0.0
  0
TEXT
  5
FB
  8
TOP22
 62
     7
 10
-300.0
 20
-112.9444444444444
 30
0.0
 40
28.222222222222221
  1
58
 41
0.85
 11
-300.0
 21
-84.722222222222229
 31
0.0
 73
     3
  0
INSERT
  5
FC
  8
BRACKET
 62
     7
  2
*U0
 10
100.0
 20
140.0
 30
0.0
  0
LINE
  5
FD
  8
BRACKET
 62
     7
 10
-510.30000000000013
 20
-18.167008800000069
 30
0.0
 11
-406.53273589550997
 21
-275.00000000000028
 31
0.0
  0
LINE
  5
FE
  8
BRACKET
 62
     7
 10
-614.06726410449028
 20
-275.00000000000028
 30
0.0
 11
-510.30000000000013
 21
-18.167008800000069
 31
0.0
  0
LINE
  5
FF
  8
BRACKET
 62
     7
 10
-510.30000000000013
 20
-275.00000000000028
 30
0.0
 11
-510.30000000000013
 21
59.98299119999978
 31
0.0
  0
LINE
  5
100
  8
BRACKET
 62
     7
 10
-150.0
 20
-694.83620144960958
 30
0.0
 11
106.8329911999999
 21
-608.90108470037239
 31
0.0
  0
LINE
  5
101
  8
BRACKET
 62
     7
 10
-150.0
 20
-522.9659679511351
 30
0.0
 11
106.8329911999999
 21
-608.90108470037239
 31
0.0
  0
LINE
  5
102
  8
BRACKET
 62
     7
 10
-150.0000000000004
 20
-608.90108470037239
 30
0.0
 11
179.4829911999999
 21
-608.90108470037239
 31
0.0
  0
INSERT
  5
103
  8
PATTERN_FILL
 62
     7
  2
*U1
 10
100.0
 20
140.0
 30
0.0
  0
INSERT
  5
104
  8
PATTERN_FILL
 62
     7
  2
*U2
 10
100.0
 20
140.0
 30
0.0
  0
LINE
  5
105
  8
SPEC
 62
     7
 10
-725.0
 20
1371.7863349999991
 30
0.0
 11
750.0
 21
1371.7863349999991
 31
0.0
  0
LINE
  5
106
  8
SPEC
 62
     7
 10
-725.0
 20
1334.2863349999991
 30
0.0
 11
750.0
 21
1334.2863349999991
 31
0.0
  0
LINE
  5
107
  8
SPEC
 62
     7
 10
-725.0
 20
1259.2863349999991
 30
0.0
 11
750.0
 21
1259.2863349999991
 31
0.0
  0
LINE
  5
108
  8
SPEC
 62
     7
 10
-725.0
 20
1296.7863349999991
 30
0.0
 11
750.0
 21
1296.7863349999991
 31
0.0
  0
LINE
  5
109
  8
SPEC
 62
     7
 10
-725.0
 20
1034.2863349999991
 30
0.0
 11
750.0
 21
1034.2863349999991
 31
0.0
  0
LINE
  5
10A
  8
SPEC
 62
     7
 10
-725.0
 20
996.78633499999955
 30
0.0
 11
750.0
 21
996.78633499999955
 31
0.0
  0
LINE
  5
10B
  8
SPEC
 62
     7
 10
-725.0
 20
921.78633499999955
 30
0.0
 11
750.0
 21
921.78633499999955
 31
0.0
  0
LINE
  5
10C
  8
SPEC
 62
     7
 10
-725.0
 20
846.78633500000001
 30
0.0
 11
750.0
 21
846.78633500000001
 31
0.0
  0
LINE
  5
10D
  8
SPEC
 62
     7
 10
-725.0
 20
734.28633500000001
 30
0.0
 11
750.0
 21
734.28633500000001
 31
0.0
  0
LINE
  5
10E
  8
SPEC
 62
     7
 10
-725.0
 20
771.78633500000001
 30
0.0
 11
750.0
 21
771.78633500000001
 31
0.0
  0
LINE
  5
10F
  8
SPEC
 62
     7
 10
-725.0
 20
809.28633500000001
 30
0.0
 11
750.0
 21
809.28633500000001
 31
0.0
  0
LINE
  5
110
  8
SPEC
 62
     7
 10
-725.0
 20
1371.7863349999991
 30
0.0
 11
-725.0
 21
659.28633500000001
 31
0.0
  0
TEXT
  5
111
  8
SPEC
 62
     7
 10
-712.49999999999989
 20
1387.6240349999989
 30
0.0
 40
25.399999999999999
  1
仕様
 41
0.85
 11
-712.49999999999989
 21
1413.0240349999999
 31
0.0
 73
     3
  0
LINE
  5
112
  8
SPEC
 62
     7
 10
-400.0
 20
1371.7863349999991
 30
0.0
 11
-400.0
 21
659.28633499999978
 31
0.0
  0
LINE
  5
113
  8
SPEC
 62
     7
 10
750.0
 20
1371.7863349999991
 30
0.0
 11
750.0
 21
659.28633500000001
 31
0.0
  0
LINE
  5
114
  8
SPEC
 62
     7
 10
-724.99999999999955
 20
1221.786335
 30
0.0
 11
750.0
 21
1221.786335
 31
0.0
  0
LINE
  5
115
  8
SPEC
 62
     7
 10
-725.0
 20
1146.7863349999991
 30
0.0
 11
750.0
 21
1146.7863349999991
 31
0.0
  0
LINE
  5
116
  8
SPEC
 62
     7
 10
-725.0
 20
1184.2863349999991
 30
0.0
 11
750.0
 21
1184.2863349999991
 31
0.0
  0
LINE
  5
117
  8
SPEC
 62
     7
 10
-725.0
 20
1109.2863349999991
 30
0.0
 11
750.0
 21
1109.2863349999991
 31
0.0
  0
LINE
  5
118
  8
SPEC
 62
     7
 10
-725.0
 20
1071.7863349999991
 30
0.0
 11
750.0
 21
1071.7863349999991
 31
0.0
  0
LINE
  5
119
  8
SPEC
 62
     7
 10
-725.0
 20
884.28633499999955
 30
0.0
 11
750.0
 21
884.28633499999955
 31
0.0
  0
TEXT
  5
11A
  8
SPEC
 62
     7
 10
-391.0
 20
1343.647223888888
 30
0.0
 40
19.75555555555556
  1
2Wayスピーカ (High Output Indoor/Outdoor Background/Foreground Speaker)
 41
0.85
 11
-391.0
 21
1363.402779444443
 31
0.0
 73
     3
  0
TEXT
  5
11B
  8
SPEC
 62
     7
 10
-716.0
 20
781.14722388888845
 30
0.0
 40
19.75555555555556
  1
可変振り角度（スピーカ）
 41
0.85
 11
-716.0
 21
800.90277944444415
 31
0.0
 73
     3
  0
TEXT
  5
11C
  8
SPEC
 62
     7
 10
-716.0
 20
856.14722388888845
 30
0.0
 40
19.75555555555556
  1
メンテナンス
 41
0.85
 11
-716.0
 21
875.90277944444415
 31
0.0
 73
     3
  0
TEXT
  5
11D
  8
SPEC
 62
     7
 10
-716.0
 20
668.64722388888845
 30
0.0
 40
19.75555555555556
  1
付属品
 41
0.85
 11
-716.0
 21
688.40277944444415
 31
0.0
 73
     3
  0
TEXT
  5
11E
  8
SPEC
 62
     7
 10
-716.0
 20
706.14722388888845
 30
0.0
 40
19.75555555555556
  1
重量
 41
0.85
 11
-716.0
 21
725.90277944444415
 31
0.0
 73
     3
  0
TEXT
  5
11F
  8
SPEC
 62
     7
 10
-716.0
 20
743.64722388888845
 30
0.0
 40
19.75555555555556
  1
寸法
 41
0.85
 11
-716.0
 21
763.40277944444415
 31
0.0
 73
     3
  0
TEXT
  5
120
  8
SPEC
 62
     7
 10
-716.0
 20
818.64722388888845
 30
0.0
 40
19.75555555555556
  1
コネクター
 41
0.85
 11
-716.0
 21
838.40277944444415
 31
0.0
 73
     3
  0
TEXT
  5
121
  8
SPEC
 62
     7
 10
-716.0
 20
893.64722388888833
 30
0.0
 40
19.75555555555556
  1
極性
 41
0.85
 11
-716.0
 21
913.40277944444381
 31
0.0
 73
     3
  0
TEXT
  5
122
  8
SPEC
 62
     7
 10
-716.0
 20
968.64722388888833
 30
0.0
 40
19.75555555555556
  1
外装色
 41
0.85
 11
-716.0
 21
988.40277944444381
 31
0.0
 73
     3
  0
TEXT
  5
123
  8
SPEC
 62
     7
 10
-716.0
 20
1006.147223888888
 30
0.0
 40
19.75555555555556
  1
耐候性規格
 41
0.85
 11
-716.0
 21
1025.902779444443
 31
0.0
 73
     3
  0
TEXT
  5
124
  8
SPEC
 62
     7
 10
-716.0
 20
1043.647223888888
 30
0.0
 40
19.75555555555556
  1
クロスオーバー
 41
0.85
 11
-716.0
 21
1063.402779444443
 31
0.0
 73
     3
  0
TEXT
  5
125
  8
SPEC
 62
     7
 10
-716.0
 20
1081.147223888888
 30
0.0
 40
19.75555555555556
  1
許容入力
 41
0.85
 11
-716.0
 21
1100.902779444443
 31
0.0
 73
     3
  0
TEXT
  5
126
  8
SPEC
 62
     7
 10
-716.0
 20
1118.647223888888
 30
0.0
 40
19.75555555555556
  1
公称インピーダンス
 41
0.85
 11
-716.0
 21
1138.4027794444439
 31
0.0
 73
     3
  0
TEXT
  5
127
  8
SPEC
 62
     7
 10
-716.0
 20
1156.147223888888
 30
0.0
 40
19.75555555555556
  1
音圧レベル (1W/1m)
 41
0.85
 11
-716.0
 21
1175.902779444443
 31
0.0
 73
     3
  0
TEXT
  5
128
  8
SPEC
 62
     7
 10
-716.0
 20
1193.647223888888
 30
0.0
 40
19.75555555555556
  1
高域ユニット
 41
0.85
 11
-716.0
 21
1213.402779444443
 31
0.0
 73
     3
  0
TEXT
  5
129
  8
SPEC
 62
     7
 10
-716.0
 20
1231.147223888888
 30
0.0
 40
19.75555555555556
  1
低域ユニット
 41
0.85
 11
-716.0
 21
1250.9027794444439
 31
0.0
 73
     3
  0
TEXT
  5
12A
  8
SPEC
 62
     7
 10
-716.0
 20
1268.647223888888
 30
0.0
 40
19.75555555555556
  1
公称カバレージ
 41
0.85
 11
-716.0
 21
1288.402779444443
 31
0.0
 73
     3
  0
TEXT
  5
12B
  8
SPEC
 62
     7
 10
-716.0
 20
1343.647223888888
 30
0.0
 40
19.75555555555556
  1
形式
 41
0.85
 11
-716.0
 21
1363.402779444443
 31
0.0
 73
     3
  0
TEXT
  5
12C
  8
SPEC
 62
     7
 10
-716.0
 20
1306.147223888888
 30
0.0
 40
19.75555555555556
  1
周波数レンジ (-10dB)
 41
0.85
 11
-716.0
 21
1325.9027794444439
 31
0.0
 73
     3
  0
TEXT
  5
12D
  8
SPEC
 62
     7
 10
-391.0
 20
781.14722388888845
 30
0.0
 40
19.75555555555556
  1
横方向 : 44゜ , 縦方向 : 37゜
 41
0.85
 11
-391.0
 21
800.90277944444415
 31
0.0
 73
     3
  0
TEXT
  5
12E
  8
SPEC
 62
     7
 10
-391.0
 20
856.14722388888845
 30
0.0
 40
19.75555555555556
  1
SPユニットは前面側で交換
 41
0.85
 11
-391.0
 21
875.90277944444415
 31
0.0
 73
     3
  0
TEXT
  5
12F
  8
SPEC
 62
     7
 10
-391.0
 20
818.64722388888845
 30
0.0
 40
19.75555555555556
  1
プッシュ式ターミナル
 41
0.85
 11
-391.0
 21
838.40277944444415
 31
0.0
 73
     3
  0
TEXT
  5
130
  8
SPEC
 62
     7
 10
-391.0
 20
743.64722388888845
 30
0.0
 40
19.75555555555556
  1
279(W)×382(H)×224(D)mm
 41
0.85
 11
-391.0
 21
763.40277944444415
 31
0.0
 73
     3
  0
TEXT
  5
131
  8
SPEC
 62
     7
 10
-391.0
 20
706.14722388888845
 30
0.0
 40
19.75555555555556
  1
約5.9kg
 41
0.85
 11
-391.0
 21
725.90277944444415
 31
0.0
 73
     3
  0
TEXT
  5
132
  8
SPEC
 62
     7
 10
-391.0
 20
1006.147223888888
 30
0.0
 40
19.75555555555556
  1
Mil-Std 810 , IPX4 Per IEC 529 (全天候型)
 41
0.85
 11
-391.0
 21
1025.902779444443
 31
0.0
 73
     3
  0
TEXT
  5
133
  8
SPEC
 62
     7
 10
-391.0
 20
1231.147223888888
 30
0.0
 40
19.75555555555556
  1
200mm (口径 : 8インチ)
 41
0.85
 11
-391.0
 21
1250.9027794444439
 31
0.0
 73
     3
  0
TEXT
  5
134
  8
SPEC
 62
     7
 10
-391.0
 20
893.64722388888833
 30
0.0
 40
19.75555555555556
  1
正相 (低域) , 正相 (高域)
 41
0.85
 11
-391.0
 21
913.40277944444381
 31
0.0
 73
     3
  0
TEXT
  5
135
  8
SPEC
 62
     7
 10
-391.0
 20
1193.647223888888
 30
0.0
 40
19.75555555555556
  1
25mm (ダイアフラム径 : 1インチ)
 41
0.85
 11
-391.0
 21
1213.402779444443
 31
0.0
 73
     3
  0
TEXT
  5
136
  8
SPEC
 62
     7
 10
-391.0
 20
936.64722388888833
 30
0.0
 40
19.75555555555556
  1
CONTROL 28-WH: 白
 41
0.85
 11
-391.0
 21
956.40277944444404
 31
0.0
 73
     3
  0
TEXT
  5
137
  8
SPEC
 62
     7
 10
-391.0
 20
968.64722388888833
 30
0.0
 40
19.75555555555556
  1
CONTROL 28: 黒
 41
0.85
 11
-391.0
 21
988.40277944444381
 31
0.0
 73
     3
  0
TEXT
  5
138
  8
SPEC
 62
     7
 10
-391.0
 20
1118.647223888888
 30
0.0
 40
19.75555555555556
  1
8Ω
 41
0.85
 11
-391.0
 21
1138.4027794444439
 31
0.0
 73
     3
  0
TEXT
  5
139
  8
SPEC
 62
     7
 10
-391.0
 20
1156.147223888888
 30
0.0
 40
19.75555555555556
  1
92dB SPL
 41
0.85
 11
-391.0
 21
1175.902779444443
 31
0.0
 73
     3
  0
TEXT
  5
13A
  8
SPEC
 62
     7
 10
-391.0
 20
1043.647223888888
 30
0.0
 40
19.75555555555556
  1
2.8kHz
 41
0.85
 11
-391.0
 21
1063.402779444443
 31
0.0
 73
     3
  0
TEXT
  5
13B
  8
SPEC
 62
     7
 10
-391.0
 20
1081.147223888888
 30
0.0
 40
19.75555555555556
  1
175W
 41
0.85
 11
-391.0
 21
1100.902779444443
 31
0.0
 73
     3
  0
TEXT
  5
13C
  8
SPEC
 62
     7
 10
-391.0
 20
1268.647223888888
 30
0.0
 40
19.75555555555556
  1
90゜×90゜
 41
0.85
 11
-391.0
 21
1288.402779444443
 31
0.0
 73
     3
  0
TEXT
  5
13D
  8
SPEC
 62
     7
 10
-391.0
 20
1306.147223888888
 30
0.0
 40
19.75555555555556
  1
60Hz～16kHz
 41
0.85
 11
-391.0
 21
1325.9027794444439
 31
0.0
 73
     3
  0
LINE
  5
13E
  8
SPEC
 62
     7
 10
-725.0
 20
659.28633500000001
 30
0.0
 11
750.0
 21
659.28633500000001
 31
0.0
  0
LINE
  5
13F
  8
SPEC
 62
     7
 10
-725.0
 20
696.78633500000001
 30
0.0
 11
750.0
 21
696.78633500000001
 31
0.0
  0
LINE
  5
140
  8
SPEC
 62
     7
 10
200.0
 20
333.3337500000012
 30
0.0
 11
474.99999999999977
 21
333.33329166666658
 31
0.0
  0
LINE
  5
141
  8
SPEC
 62
     7
 10
141.66681250000011
 20
333.33375000000132
 30
0.0
 11
158.3334375000004
 21
333.33375000000132
 31
0.0
  0
LINE
  5
142
  8
SPEC
 62
     7
 10
181.2500000000004
 20
323.95875000000132
 30
0.0
 11
200.0
 21
333.3337500000012
 31
0.0
  0
LINE
  5
143
  8
SPEC
 62
     7
 10
181.2500000000004
 20
342.7087500000012
 30
0.0
 11
200.0
 21
333.3337500000012
 31
0.0
  0
TEXT
  5
144
  8
SPEC
 62
     7
 10
166.66675000000069
 20
433.3334999999999
 30
0.0
 40
20.624948437499992
  1
INPUT
 41
0.85
 11
166.66675000000069
 21
453.95844843750001
 31
0.0
 73
     3
  0
LINE
  5
145
  8
SPEC
 62
     7
 10
200.0
 20
533.33324999999991
 30
0.0
 11
275.0
 21
533.33324999999957
 31
0.0
  0
LINE
  5
146
  8
SPEC
 62
     7
 10
150.00012500000091
 20
524.99993749999976
 30
0.0
 11
150.00012500000091
 21
541.66656250000005
 31
0.0
  0
LINE
  5
147
  8
SPEC
 62
     7
 10
141.66681250000011
 20
533.33324999999991
 30
0.0
 11
158.3334375000004
 21
533.33324999999991
 31
0.0
  0
LINE
  5
148
  8
SPEC
 62
     7
 10
181.2500000000004
 20
523.95824999999991
 30
0.0
 11
200.0
 21
533.33324999999991
 31
0.0
  0
LINE
  5
149
  8
SPEC
 62
     7
 10
181.2500000000004
 20
542.70825000000002
 30
0.0
 11
200.0
 21
533.33324999999991
 31
0.0
  0
TEXT
  5
14A
  8
SPEC
 62
     7
 10
-391.0
 20
668.64722388888845
 30
0.0
 40
19.75555555555556
  1
Invisiball取付金具(壁用 1本:約230g),六角レンチ
 41
0.85
 11
-391.0
 21
688.40277944444415
 31
0.0
 73
     3
  0
LINE
  5
14B
  8
SPEC
 62
     7
 10
433.33274999999981
 20
533.33324999999957
 30
0.0
 11
433.33274999999981
 21
400.00024999999999
 31
0.0
  0
TEXT
  5
14C
  8
SPEC
 62
     7
 10
487.63915972222202
 20
513.0763209201391
 30
0.0
 40
14.111111111111111
  1
ハイパス
 41
0.85
 11
487.63915972222202
 21
527.18743203125018
 31
0.0
 73
     3
  0
LINE
  5
14D
  8
SPEC
 62
     7
 10
275.0
 20
499.99999999999977
 30
0.0
 11
275.0
 21
566.66649999999947
 31
0.0
  0
LINE
  5
14E
  8
SPEC
 62
     7
 10
474.99999999999977
 20
450.0001249999998
 30
0.0
 11
474.99999999999977
 21
549.9998750000002
 31
0.0
  0
LINE
  5
14F
  8
SPEC
 62
     7
 10
412.49949999999961
 20
499.99999999999977
 30
0.0
 11
412.49949999999961
 21
566.66649999999947
 31
0.0
  0
CIRCLE
  5
150
  8
SPEC
 62
     7
 10
750.0
 20
499.9999999999996
 30
0.0
 40
49.999875000000422
  0
CIRCLE
  5
151
  8
SPEC
 62
     7
 10
750.0
 20
499.9999999999996
 30
0.0
 40
33.33325000000012
  0
CIRCLE
  5
152
  8
SPEC
 62
     7
 10
750.0
 20
499.9999999999996
 30
0.0
 40
29.33326000000033
  0
ARC
  5
153
  8
SPEC
 62
     7
 10
750.0
 20
499.9999999999996
 30
0.0
 40
83.333124999999967
 50
168.4630409671845
 51
191.53695903281559
  0
LINE
  5
154
  8
SPEC
 62
     7
 10
570.83387499999981
 20
450.0001249999998
 30
0.0
 11
570.83387499999981
 21
549.99987499999975
 31
0.0
  0
ARC
  5
155
  8
SPEC
 62
     7
 10
750.0
 20
499.9999999999996
 30
0.0
 40
83.333125000000024
 50
348.46304096718438
 51
11.53695903281538
  0
TEXT
  5
156
  8
SPEC
 62
     7
 10
849.99974999999995
 20
503.32919211739232
 30
0.0
 40
16.113240966796869
  1
Driver
 41
0.85
 11
849.99974999999995
 21
519.44243308418913
 31
0.0
 73
     3
  0
LINE
  5
157
  8
SPEC
 62
     7
 10
449.9999999999996
 20
333.33375000000001
 30
0.0
 11
570.83387499999981
 21
333.33375000000001
 31
0.0
  0
LINE
  5
158
  8
SPEC
 62
     7
 10
474.99999999999977
 20
316.66712500000011
 30
0.0
 11
570.83387499999981
 21
316.66712500000011
 31
0.0
  0
TEXT
  5
159
  8
SPEC
 62
     7
 10
478.81971527777762
 20
353.3761993381072
 30
0.0
 40
14.111111111111111
  1
フィルター
 41
0.85
 11
478.81971527777762
 21
367.48731044921823
 31
0.0
 73
     3
  0
LINE
  5
15A
  8
SPEC
 62
     7
 10
449.9999999999996
 20
400.00024999999999
 30
0.0
 11
570.83387499999981
 21
400.00024999999999
 31
0.0
  0
LINE
  5
15B
  8
SPEC
 62
     7
 10
474.99999999999977
 20
416.66687499999989
 30
0.0
 11
570.83387499999981
 21
416.66687499999989
 31
0.0
  0
LINE
  5
15C
  8
SPEC
 62
     7
 10
474.99999999999977
 20
450.0001249999998
 30
0.0
 11
570.83387499999981
 21
450.0001249999998
 31
0.0
  0
LINE
  5
15D
  8
SPEC
 62
     7
 10
449.9999999999996
 20
466.66674999999992
 30
0.0
 11
570.83387499999981
 21
466.66674999999992
 31
0.0
  0
TEXT
  5
15E
  8
SPEC
 62
     7
 10
478.81971527777762
 20
486.70919933810768
 30
0.0
 40
14.111111111111111
  1
フィルター
 41
0.85
 11
478.81971527777762
 21
500.82031044921882
 31
0.0
 73
     3
  0
LINE
  5
15F
  8
SPEC
 62
     7
 10
275.0
 20
499.99999999999977
 30
0.0
 11
412.49949999999961
 21
499.99999999999977
 31
0.0
  0
LINE
  5
160
  8
SPEC
 62
     7
 10
408.33487499999961
 20
170.8332499999994
 30
0.0
 11
558.3348749999999
 21
170.8332499999994
 31
0.0
  0
TEXT
  5
161
  8
SPEC
 62
     7
 10
487.63915972222202
 20
379.74332092013827
 30
0.0
 40
14.111111111111111
  1
ローパス
 41
0.85
 11
487.63915972222202
 21
393.85443203124947
 31
0.0
 73
     3
  0
LINE
  5
162
  8
SPEC
 62
     7
 10
449.9993749999997
 20
333.33375000000001
 30
0.0
 11
449.9993749999997
 21
466.66674999999992
 31
0.0
  0
LINE
  5
163
  8
SPEC
 62
     7
 10
474.99999999999977
 20
316.66712500000011
 30
0.0
 11
474.99999999999977
 21
416.66687499999989
 31
0.0
  0
CIRCLE
  5
164
  8
SPEC
 62
     7
 10
449.9993749999997
 20
333.33374999999899
 30
0.0
 40
3.515616210937424
  0
LINE
  5
165
  8
SPEC
 62
     7
 10
433.33274999999981
 20
400.00024999999999
 30
0.0
 11
474.99999999999977
 21
400.00024999999999
 31
0.0
  0
LINE
  5
166
  8
SPEC
 62
     7
 10
449.9993749999997
 20
466.66674999999992
 30
0.0
 11
474.99999999999977
 21
466.66674999999992
 31
0.0
  0
TEXT
  5
167
  8
SPEC
 62
     7
 10
439.95449385880408
 20
187.49987499999949
 30
0.0
 40
24.921875
  1
接続図
 41
0.85
 11
439.95449385880408
 21
212.42174999999949
 31
0.0
 73
     3
  0
LINE
  5
168
  8
SPEC
 62
     7
 10
797.14033422797252
 20
483.33337499999919
 30
0.0
 11
831.64945396862731
 21
483.33337499999919
 31
0.0
  0
ARC
  5
169
  8
SPEC
 62
     7
 10
820.73010523976779
 20
262.60364476023159
 30
0.0
 40
10.66663999999998
 50
273.13639239527521
 51
356.8636076047211
  0
ARC
  5
16A
  8
SPEC
 62
     7
 10
820.73010523976779
 20
404.06385523976809
 30
0.0
 40
10.666639999999999
 50
3.1363923952777131
 51
86.86360760472229
  0
CIRCLE
  5
16B
  8
SPEC
 62
     7
 10
750.0
 20
333.33375000000001
 30
0.0
 40
77.333140000000185
  0
ARC
  5
16C
  8
SPEC
 62
     7
 10
749.99999999999955
 20
1553.4140331249951
 30
0.0
 40
1303.413408124994
 50
266.86360760472212
 51
273.13639239527771
  0
LINE
  5
16D
  8
SPEC
 62
     7
 10
795.11833355699309
 20
311.78558355699317
 30
0.0
 11
806.44511788558384
 21
300.45879922840282
 31
0.0
  0
LINE
  5
16E
  8
SPEC
 62
     7
 10
795.11833355699309
 20
354.88191644300667
 30
0.0
 11
806.44511788558236
 21
366.208700771596
 31
0.0
  0
ARC
  5
16F
  8
SPEC
 62
     7
 10
749.99999999999955
 20
-886.7465331249947
 30
0.0
 40
1303.413408124994
 50
86.863607604722105
 51
93.136392395277795
  0
TEXT
  5
170
  8
SPEC
 62
     7
 10
773.3332750000003
 20
191.6665625
 30
0.0
 40
17.187457031249998
  1
RED
 41
0.85
 11
773.3332750000003
 21
208.85401953125
 31
0.0
 73
     3
  0
ARC
  5
171
  8
SPEC
 62
     7
 10
1970.0802831249939
 20
333.33375000000001
 30
0.0
 40
1303.413408124994
 50
176.86360760472209
 51
183.1363923952778
  0
ARC
  5
172
  8
SPEC
 62
     7
 10
750.0
 20
333.33375000000001
 30
0.0
 40
68.718255297560034
 50
62.019655054720488
 51
117.9803449452782
  0
LINE
  5
173
  8
SPEC
 62
     7
 10
570.83387499999981
 20
316.66712500000011
 30
0.0
 11
570.83387499999981
 21
416.66687499999989
 31
0.0
  0
CIRCLE
  5
174
  8
SPEC
 62
     7
 10
750.0
 20
333.33375000000001
 30
0.0
 40
49.999874999999982
  0
LINE
  5
175
  8
SPEC
 62
     7
 10
728.45183355699282
 20
378.4520835569931
 30
0.0
 11
717.12504922840071
 21
389.77886788558601
 31
0.0
  0
LINE
  5
176
  8
SPEC
 62
     7
 10
771.54816644300661
 20
378.4520835569931
 30
0.0
 11
782.87495077160236
 21
389.77886788558902
 31
0.0
  0
ARC
  5
177
  8
SPEC
 62
     7
 10
679.26989476023164
 20
262.60364476023159
 30
0.0
 40
10.66663999999999
 50
183.1363923952764
 51
266.86360760471979
  0
CIRCLE
  5
178
  8
SPEC
 62
     7
 10
750.0
 20
333.33375000000001
 30
0.0
 40
41.384990297559852
  0
LINE
  5
179
  8
SPEC
 62
     7
 10
704.88166644300645
 20
354.88191644300667
 30
0.0
 11
693.55488211441832
 21
366.20870077159492
 31
0.0
  0
ARC
  5
17A
  8
SPEC
 62
     7
 10
691.66926874529963
 20
364.32308740247589
 30
0.0
 40
2.6666600000003151
 50
44.99999999999654
 51
152.01965505472131
  0
LINE
  5
17B
  8
SPEC
 62
     7
 10
704.88166644300645
 20
311.785583556993
 30
0.0
 11
693.55488211441161
 21
300.4587992283972
 31
0.0
  0
ARC
  5
17C
  8
SPEC
 62
     7
 10
691.66926874529236
 20
302.34441259751628
 30
0.0
 40
2.6666600000000158
 50
207.9803449452786
 51
314.99999999999642
  0
LINE
  5
17D
  8
SPEC
 62
     7
 10
728.45183355699282
 20
288.21541644300657
 30
0.0
 11
717.12504922840378
 21
276.88863211441748
 31
0.0
  0
ARC
  5
17E
  8
SPEC
 62
     7
 10
719.0106625975227
 20
275.00301874529839
 30
0.0
 40
2.6666600000003151
 50
135.0000000000035
 51
242.0196550547256
  0
LINE
  5
17F
  8
SPEC
 62
     7
 10
771.54816644300661
 20
288.2154164430072
 30
0.0
 11
782.87495077159963
 21
276.88863211441412
 31
0.0
  0
ARC
  5
180
  8
SPEC
 62
     7
 10
780.98933740248037
 20
275.00301874529532
 30
0.0
 40
2.6666600000001242
 50
297.98034494528292
 51
44.999999999996568
  0
ARC
  5
181
  8
SPEC
 62
     7
 10
750.0
 20
333.33375000000001
 30
0.0
 40
68.718255297559935
 50
152.01965505472339
 51
207.9803449452794
  0
ARC
  5
182
  8
SPEC
 62
     7
 10
750.0
 20
333.33375000000001
 30
0.0
 40
68.718255297559935
 50
242.01965505472299
 51
297.9803449452782
  0
LINE
  5
183
  8
SPEC
 62
     7
 10
740.00002499999971
 20
280.00054999999969
 30
0.0
 11
740.00002499999971
 21
284.34407761882358
 31
0.0
  0
LINE
  5
184
  8
SPEC
 62
     7
 10
730.0000500000001
 20
280.00055000000009
 30
0.0
 11
730.0000500000001
 21
287.50810761483422
 31
0.0
  0
LINE
  5
185
  8
SPEC
 62
     7
 10
769.99994999999944
 20
280.00054999999992
 30
0.0
 11
759.99997499999972
 21
280.00054999999969
 31
0.0
  0
LINE
  5
186
  8
SPEC
 62
     7
 10
759.99997499999972
 20
280.00054999999969
 30
0.0
 11
759.99997499999972
 21
284.34407761882358
 31
0.0
  0
LINE
  5
187
  8
SPEC
 62
     7
 10
769.99994999999944
 20
280.00055000000009
 30
0.0
 11
769.99994999999944
 21
287.50810761483422
 31
0.0
  0
LINE
  5
188
  8
SPEC
 62
     7
 10
730.0000500000001
 20
280.00054999999992
 30
0.0
 11
740.00002499999971
 21
280.00054999999969
 31
0.0
  0
TEXT
  5
189
  8
SPEC
 62
     7
 10
728.82839028007083
 20
300.0004999999997
 30
0.0
 40
20.624948437499992
  1
-
 41
0.85
 11
728.82839028007083
 21
320.62544843749959
 31
0.0
 73
     3
  0
TEXT
  5
18A
  8
SPEC
 62
     7
 10
758.82831528007034
 20
300.0004999999997
 30
0.0
 40
20.624948437499992
  1
+
 41
0.85
 11
758.82831528007034
 21
320.62544843749959
 31
0.0
 73
     3
  0
LINE
  5
18B
  8
SPEC
 62
     7
 10
735.00003749999985
 20
200.0007500000001
 30
0.0
 11
735.00003749999985
 21
280.00054999999969
 31
0.0
  0
TEXT
  5
18C
  8
SPEC
 62
     7
 10
691.29218266434191
 20
208.33406249999999
 30
0.0
 40
17.187457031249998
  1
BLK
 41
0.85
 11
691.29218266434191
 21
225.52151953125011
 31
0.0
 73
     3
  0
ARC
  5
18D
  8
SPEC
 62
     7
 10
719.01066259751951
 20
391.66448125470521
 30
0.0
 40
2.6666599999999101
 50
117.9803449452743
 51
225.0000000000035
  0
ARC
  5
18E
  8
SPEC
 62
     7
 10
780.98933740248356
 20
391.66448125470799
 30
0.0
 40
2.6666600000003151
 50
315.00000000000352
 51
62.019655054717042
  0
LINE
  5
18F
  8
SPEC
 62
     7
 10
650.0014999999994
 20
200.0007499999999
 30
0.0
 11
650.0014999999994
 21
333.33375000000001
 31
0.0
  0
LINE
  5
190
  8
SPEC
 62
     7
 10
650.0014999999994
 20
200.0007500000001
 30
0.0
 11
735.00003749999985
 21
200.0007500000001
 31
0.0
  0
TEXT
  5
191
  8
SPEC
 62
     7
 10
575.00049999999908
 20
341.66706249999959
 30
0.0
 40
17.187457031249998
  1
L.F.-
 41
0.85
 11
575.00049999999908
 21
358.85451953124971
 31
0.0
 73
     3
  0
LINE
  5
192
  8
SPEC
 62
     7
 10
570.83387499999981
 20
333.33375000000001
 30
0.0
 11
650.00149999999883
 21
333.3337499999995
 31
0.0
  0
ARC
  5
193
  8
SPEC
 62
     7
 10
679.26989476023164
 20
404.06385523976809
 30
0.0
 40
10.666639999999999
 50
93.136392395277724
 51
176.8636076047211
  0
TEXT
  5
194
  8
SPEC
 62
     7
 10
575.00049999999908
 20
408.33356250000003
 30
0.0
 40
17.187457031249998
  1
L.F.+
 41
0.85
 11
575.00049999999908
 21
425.52101953124992
 31
0.0
 73
     3
  0
LINE
  5
195
  8
SPEC
 62
     7
 10
570.83387499999981
 20
400.00024999999999
 30
0.0
 11
633.33487499999967
 21
400.00024999999982
 31
0.0
  0
LINE
  5
196
  8
SPEC
 62
     7
 10
668.35054603137269
 20
483.33337499999919
 30
0.0
 11
702.85966577202669
 21
483.33337499999919
 31
0.0
  0
CIRCLE
  5
197
  8
SPEC
 62
     7
 10
675.0001874999997
 20
499.9999999999996
 30
0.0
 40
2.6666599999998639
  0
LINE
  5
198
  8
SPEC
 62
     7
 10
740.00002500000028
 20
462.66675999999961
 30
0.0
 11
759.99997499999972
 21
462.66675999999961
 31
0.0
  0
LINE
  5
199
  8
SPEC
 62
     7
 10
740.00002500000028
 20
468.20210611436801
 30
0.0
 11
740.00002500000028
 21
462.66675999999961
 31
0.0
  0
LINE
  5
19A
  8
SPEC
 62
     7
 10
759.99997499999972
 20
468.20210611436801
 30
0.0
 11
759.99997499999972
 21
462.66675999999961
 31
0.0
  0
TEXT
  5
19B
  8
SPEC
 62
     7
 10
575.00049999999965
 20
475.00006249999961
 30
0.0
 40
17.187457031249998
  1
H.F.-
 41
0.85
 11
575.00049999999965
 21
492.18751953124951
 31
0.0
 73
     3
  0
LINE
  5
19C
  8
SPEC
 62
     7
 10
570.83387499999981
 20
466.66674999999992
 30
0.0
 11
750.0
 21
466.66674999999913
 31
0.0
  0
TEXT
  5
19D
  8
SPEC
 62
     7
 10
641.66700000000026
 20
441.66681249999908
 30
0.0
 40
17.187457031249998
  1
BLK
 41
0.85
 11
641.66700000000026
 21
458.85426953124909
 31
0.0
 73
     3
  0
TEXT
  5
19E
  8
SPEC
 62
     7
 10
697.91681250000045
 20
441.66681249999908
 30
0.0
 40
20.624948437499992
  1
-
 41
0.85
 11
697.91681250000045
 21
462.29176093749902
 31
0.0
 73
     3
  0
LINE
  5
19F
  8
SPEC
 62
     7
 10
633.33487499999967
 20
183.33324999999971
 30
0.0
 11
764.99996250000038
 21
183.33324999999971
 31
0.0
  0
LINE
  5
1A0
  8
SPEC
 62
     7
 10
633.3348749999991
 20
183.33324999999991
 30
0.0
 11
633.33487499999967
 21
400.00024999999982
 31
0.0
  0
LINE
  5
1A1
  8
SPEC
 62
     7
 10
764.99996249999879
 20
183.33324999999971
 30
0.0
 11
764.99996249999958
 21
280.00054999999969
 31
0.0
  0
ARC
  5
1A2
  8
SPEC
 62
     7
 10
808.33073125470241
 20
302.34441259752163
 30
0.0
 40
2.6666599999999931
 50
225.0000000000035
 51
332.01965505472123
  0
ARC
  5
1A3
  8
SPEC
 62
     7
 10
808.33073125470105
 20
364.32308740247697
 30
0.0
 40
2.6666599999999101
 50
27.98034494527435
 51
134.9999999999965
  0
ARC
  5
1A4
  8
SPEC
 62
     7
 10
750.0
 20
333.33375000000001
 30
0.0
 40
68.718255297559963
 50
332.01965505472248
 51
27.98034494527689
  0
CIRCLE
  5
1A5
  8
SPEC
 62
     7
 10
824.99981250000064
 20
499.9999999999996
 30
0.0
 40
2.6666599999998639
  0
ARC
  5
1A6
  8
SPEC
 62
     7
 10
-470.08028312499482
 20
333.33375000000052
 30
0.0
 40
1303.413408124994
 50
356.86360760472218
 51
3.1363923952778232
  0
TEXT
  5
1A7
  8
SPEC
 62
     7
 10
849.99974999999995
 20
369.9961921173923
 30
0.0
 40
16.113240966796869
  1
Driver
 41
0.85
 11
849.99974999999995
 21
386.10943308418922
 31
0.0
 73
     3
  0
TEXT
  5
1A8
  8
SPEC
 62
     7
 10
849.99974999999995
 20
350.00037500000002
 30
0.0
 40
16.113240966796869
  1
Low Freq
 41
0.85
 11
849.99974999999995
 21
366.11361596679689
 31
0.0
 73
     3
  0
TEXT
  5
1A9
  8
SPEC
 62
     7
 10
849.99974999999995
 20
483.33337499999919
 30
0.0
 40
16.113240966796869
  1
High Freq
 41
0.85
 11
849.99974999999995
 21
499.446615966796
 31
0.0
 73
     3
  0
TEXT
  5
1AA
  8
SPEC
 62
     7
 10
849.99974999999995
 20
463.33755788260743
 30
0.0
 40
16.113240966796869
  1
25mm
 41
0.85
 11
849.99974999999995
 21
479.45079884940418
 31
0.0
 73
     3
  0
TEXT
  5
1AB
  8
SPEC
 62
     7
 10
849.99974999999995
 20
330.0045578826082
 30
0.0
 40
16.113240966796869
  1
200mm
 41
0.85
 11
849.99974999999995
 21
346.11779884940501
 31
0.0
 73
     3
  0
LINE
  5
1AC
  8
SPEC
 62
     7
 10
449.9999999999996
 20
533.33325000000002
 30
0.0
 11
570.83387499999981
 21
533.33324999999957
 31
0.0
  0
LINE
  5
1AD
  8
SPEC
 62
     7
 10
474.99999999999977
 20
549.9998750000002
 30
0.0
 11
570.83387499999981
 21
549.99987499999975
 31
0.0
  0
LINE
  5
1AE
  8
SPEC
 62
     7
 10
275.0
 20
566.66649999999947
 30
0.0
 11
412.49949999999961
 21
566.66649999999947
 31
0.0
  0
TEXT
  5
1AF
  8
SPEC
 62
     7
 10
282.01363888888869
 20
539.53458810763846
 30
0.0
 40
14.111111111111111
  1
ソニックガード
 41
0.85
 11
282.01363888888869
 21
553.64569921874966
 31
0.0
 73
     3
  0
CIRCLE
  5
1B0
  8
SPEC
 62
     7
 10
433.33274999999981
 20
533.333249999999
 30
0.0
 40
3.515616210937424
  0
LINE
  5
1B1
  8
SPEC
 62
     7
 10
412.49950000000013
 20
533.33324999999957
 30
0.0
 11
474.99999999999977
 21
533.33324999999957
 31
0.0
  0
TEXT
  5
1B2
  8
SPEC
 62
     7
 10
326.11086111111092
 20
516.40964592013802
 30
0.0
 40
14.111111111111111
  1
回路
 41
0.85
 11
326.11086111111092
 21
530.52075703124899
 31
0.0
 73
     3
  0
LINE
  5
1B3
  8
SPEC
 62
     7
 10
797.1403342279732
 20
516.66662499999939
 30
0.0
 11
831.64945396862731
 21
516.66662499999939
 31
0.0
  0
TEXT
  5
1B4
  8
SPEC
 62
     7
 10
697.91681250000011
 20
541.66656249999915
 30
0.0
 40
20.624948437499992
  1
+
 41
0.85
 11
697.91681250000011
 21
562.2915109374992
 31
0.0
 73
     3
  0
TEXT
  5
1B5
  8
SPEC
 62
     7
 10
641.6669999999998
 20
541.66656249999915
 30
0.0
 40
17.187457031249998
  1
BLUE
 41
0.85
 11
641.6669999999998
 21
558.85401953124915
 31
0.0
 73
     3
  0
LINE
  5
1B6
  8
SPEC
 62
     7
 10
668.35054603137269
 20
516.66662499999939
 30
0.0
 11
702.85966577202669
 21
516.66662499999939
 31
0.0
  0
LINE
  5
1B7
  8
SPEC
 62
     7
 10
740.00002500000028
 20
537.33323999999925
 30
0.0
 11
759.99997499999972
 21
537.33323999999925
 31
0.0
  0
LINE
  5
1B8
  8
SPEC
 62
     7
 10
740.00002500000028
 20
531.79789388563086
 30
0.0
 11
740.00002500000028
 21
537.33323999999925
 31
0.0
  0
LINE
  5
1B9
  8
SPEC
 62
     7
 10
759.99997499999972
 20
531.79789388563086
 30
0.0
 11
759.99997499999972
 21
537.33323999999925
 31
0.0
  0
TEXT
  5
1BA
  8
SPEC
 62
     7
 10
575.00049999999965
 20
541.66656249999949
 30
0.0
 40
17.187457031249998
  1
H.F.+
 41
0.85
 11
575.00049999999965
 21
558.85401953124961
 31
0.0
 73
     3
  0
LINE
  5
1BB
  8
SPEC
 62
     7
 10
570.83387499999981
 20
533.33324999999911
 30
0.0
 11
750.0
 21
533.33324999999957
 31
0.0
  0
TEXT
  5
1BC
  8
DIMNSIONS
 62
     7
 10
-100.0
 20
-1003.613764999999
 30
0.0
 40
25.399999999999999
  1
(単位：mm)
 41
0.85
 11
-100.0
 21
-978.21376499999985
 31
0.0
 73
     3
  0
TEXT
  5
1BD
  8
DIMNSIONS
 62
     7
 10
-662.5
 20
-375.0
 30
0.0
 40
21.484375
  1
可変振り角度（スピーカ）横方向
 41
0.85
 11
-662.5
 21
-353.515625
 31
0.0
 73
     3
  0
TEXT
  5
1BE
  8
DIMNSIONS
 62
     7
 10
-350.0
 20
-784.912109375
 30
0.0
 40
21.484375
  1
（スピーカ）縦方向
 41
0.85
 11
-350.0
 21
-763.427734375
 31
0.0
 73
     3
  0
TEXT
  5
1BF
  8
DIMNSIONS
 62
     7
 10
-350.0
 20
-746.484375
 30
0.0
 40
21.484375
  1
可変振り角度
 41
0.85
 11
-350.0
 21
-725.0
 31
0.0
 73
     3
  0
LINE
  5
1C0
  8
DIMNSIONS
 62
     7
 10
-565.30000000000018
 20
59.98299119999978
 30
0.0
 11
-720.0
 21
59.98299119999978
 31
0.0
  0
LINE
  5
1C1
  8
DIMNSIONS
 62
     7
 10
-586.20185955205125
 20
-1.0170087999999851
 30
0.0
 11
-720.0
 21
-1.0170087999999851
 31
0.0
  0
LINE
  5
1C3
  8
DIMNSIONS
 62
     7
 10
-700.0
 20
59.98299119999978
 30
0.0
 11
-693.2996020484976
 21
34.97676561406228
 31
0.0
  0
LINE
  5
1C4
  8
DIMNSIONS
 62
     7
 10
-700.0
 20
59.98299119999978
 30
0.0
 11
-706.7003979515024
 21
34.97676561406228
 31
0.0
  0
LINE
  5
1C5
  8
DIMNSIONS
 62
     7
 10
-700.0
 20
-1.0170087999999851
 30
0.0
 11
-706.7003979515024
 21
23.989216785937511
 31
0.0
  0
LINE
  5
1C6
  8
DIMNSIONS
 62
     7
 10
-700.0
 20
-1.0170087999999851
 30
0.0
 11
-693.2996020484976
 21
23.989216785937511
 31
0.0
  0
LINE
  5
1C2
  8
DIMNSIONS
 62
     7
 10
-700.0
 20
59.98299119999978
 30
0.0
 11
-700.0
 21
-1.0170087999999851
 31
0.0
  0
TEXT
  5
1C7
  8
DIMNSIONS
 62
     7
 10
-712.05555555555543
 20
11.84410231111101
 30
0.0
 40
28.222222222222221
  1
61
 50
90.0
 41
0.85
 11
-740.27777777777771
 21
11.84410231111101
 31
0.0
 73
     3
  0
LINE
  5
1C8
  8
DIMNSIONS
 62
     7
 10
-586.20185955205125
 20
-1.0170087999999851
 30
0.0
 11
-720.0
 21
-1.0170087999999851
 31
0.0
  0
LINE
  5
1C9
  8
DIMNSIONS
 62
     7
 10
-530.30000000000007
 20
-225.0
 30
0.0
 11
-720.0
 21
-225.0
 31
0.0
  0
LINE
  5
1CB
  8
DIMNSIONS
 62
     7
 10
-700.0
 20
-1.0170087999999851
 30
0.0
 11
-693.2996020484976
 21
-26.023234385937482
 31
0.0
  0
LINE
  5
1CC
  8
DIMNSIONS
 62
     7
 10
-700.0
 20
-1.0170087999999851
 30
0.0
 11
-706.7003979515024
 21
-26.023234385937482
 31
0.0
  0
LINE
  5
1CD
  8
DIMNSIONS
 62
     7
 10
-700.0
 20
-225.0
 30
0.0
 11
-706.7003979515024
 21
-199.99377441406239
 31
0.0
  0
LINE
  5
1CE
  8
DIMNSIONS
 62
     7
 10
-700.0
 20
-225.0
 30
0.0
 11
-693.2996020484976
 21
-199.99377441406239
 31
0.0
  0
LINE
  5
1CA
  8
DIMNSIONS
 62
     7
 10
-700.0
 20
-1.0170087999999851
 30
0.0
 11
-700.0
 21
-225.0
 31
0.0
  0
TEXT
  5
1CF
  8
DIMNSIONS
 62
     7
 10
-712.05555555555543
 20
-139.46683773333331
 30
0.0
 40
28.222222222222221
  1
224
 50
90.0
 41
0.85
 11
-740.27777777777771
 21
-139.46683773333331
 31
0.0
 73
     3
  0
LINE
  5
1D0
  8
DIMNSIONS
 62
     7
 10
-416.08314044794878
 20
-1.017008799999757
 30
0.0
 11
-350.78271631092417
 21
-1.017008799999757
 31
0.0
  0
LINE
  5
1D2
  8
DIMNSIONS
 62
     7
 10
-370.78271631092417
 20
-1.017008799999757
 30
0.0
 11
-364.08231835942172
 21
-26.023234385937251
 31
0.0
  0
LINE
  5
1D3
  8
DIMNSIONS
 62
     7
 10
-370.78271631092417
 20
-1.017008799999757
 30
0.0
 11
-377.48311426242662
 21
-26.023234385937251
 31
0.0
  0
LINE
  5
1D4
  8
DIMNSIONS
 62
     7
 10
-413.95492393518742
 20
-65.873543278930867
 30
0.0
 11
-393.27956855939448
 21
-50.293545498187569
 31
0.0
  0
LINE
  5
1D5
  8
DIMNSIONS
 62
     7
 10
-413.95492393518742
 20
-65.873543278930867
 30
0.0
 11
-388.25954205710792
 21
-62.718547097798421
 31
0.0
  0
ARC
  5
1D1
  8
DIMNSIONS
 62
     7
 10
-441.08500000000009
 20
-1.017008799999757
 30
0.0
 40
70.302283689075907
 50
292.69999999999987
 51
0.0
  0
TEXT
  5
1D6
  8
DIMNSIONS
 62
     7
 10
-380.06716557134058
 20
-105.2022566810658
 30
0.0
 40
28.222222222222221
  1
67.3°
 50
56.350000000000009
 41
0.85
 11
-403.56041574810149
 21
-89.563809721964745
 31
0.0
 73
     3
  0
LINE
  5
1D7
  8
DIMNSIONS
 62
     7
 10
-399.04060402719188
 20
-293.54367709133589
 30
0.0
 11
-397.08785774407198
 21
-298.3768937447436
 31
0.0
  0
LINE
  5
1D8
  8
DIMNSIONS
 62
     7
 10
-621.55939597280837
 20
-293.54367709133589
 30
0.0
 11
-623.51214225592855
 21
-298.3768937447436
 31
0.0
  0
LINE
  5
1DA
  8
DIMNSIONS
 62
     7
 10
-404.57998961239008
 20
-279.83321665340799
 30
0.0
 11
-425.25534498818291
 21
-295.4132144341512
 31
0.0
  0
LINE
  5
1DB
  8
DIMNSIONS
 62
     7
 10
-404.57998961239008
 20
-279.83321665340799
 30
0.0
 11
-430.27537149046952
 21
-282.98821283454032
 31
0.0
  0
LINE
  5
1DC
  8
DIMNSIONS
 62
     7
 10
-616.02001038761034
 20
-279.83321665340799
 30
0.0
 11
-590.32462850953107
 21
-282.98821283454032
 31
0.0
  0
LINE
  5
1DD
  8
DIMNSIONS
 62
     7
 10
-616.02001038761034
 20
-279.83321665340799
 30
0.0
 11
-595.34465501181751
 21
-295.4132144341512
 31
0.0
  0
ARC
  5
1D9
  8
DIMNSIONS
 62
     7
 10
-510.30000000000013
 20
-18.167008800000069
 30
0.0
 40
282.21609615459431
 50
248.0
 51
292.0
  0
TEXT
  5
1DE
  8
DIMNSIONS
 62
     7
 10
-545.57777777777801
 20
-333.60532717681662
 30
0.0
 40
28.222222222222221
  1
44°
 41
0.85
 11
-545.57777777777801
 21
-305.38310495459439
 31
0.0
 73
     3
  0
TEXT
  5
1DF
  8
DIMNSIONS
 62
     7
 10
-250.0
 20
-184.52500000000001
 30
0.0
 40
25.399999999999999
  1
注1) スピーカの角度をつけた時の寸法です。
 41
0.85
 11
-250.0
 21
-159.125
 31
0.0
 73
     3
  0
LINE
  5
1E0
  8
DIMNSIONS
 62
     7
 10
-650.0
 20
-816.82499999999982
 30
0.0
 11
-650.0
 21
-895.0
 31
0.0
  0
LINE
  5
1E1
  8
DIMNSIONS
 62
     7
 10
-370.59999999999991
 20
-816.81999999999982
 30
0.0
 11
-370.59999999999991
 21
-895.0
 31
0.0
  0
LINE
  5
1E3
  8
DIMNSIONS
 62
     7
 10
-650.0
 20
-875.0
 30
0.0
 11
-624.99377441406239
 21
-868.2996020484976
 31
0.0
  0
LINE
  5
1E4
  8
DIMNSIONS
 62
     7
 10
-650.0
 20
-875.0
 30
0.0
 11
-624.99377441406239
 21
-881.70039795150228
 31
0.0
  0
LINE
  5
1E5
  8
DIMNSIONS
 62
     7
 10
-370.59999999999991
 20
-875.0
 30
0.0
 11
-395.60622558593741
 21
-881.70039795150228
 31
0.0
  0
LINE
  5
1E6
  8
DIMNSIONS
 62
     7
 10
-370.59999999999991
 20
-875.0
 30
0.0
 11
-395.60622558593741
 21
-868.2996020484976
 31
0.0
  0
LINE
  5
1E2
  8
DIMNSIONS
 62
     7
 10
-650.0
 20
-875.0
 30
0.0
 11
-370.59999999999991
 21
-875.0
 31
0.0
  0
TEXT
  5
1E7
  8
DIMNSIONS
 62
     7
 10
-536.75833333333333
 20
-862.94444444444434
 30
0.0
 40
28.222222222222221
  1
279
 41
0.85
 11
-536.75833333333333
 21
-834.72222222222206
 31
0.0
 73
     3
  0
LINE
  5
1E8
  8
DIMNSIONS
 62
     7
 10
-168.96647310412391
 20
-516.61987482303346
 30
0.0
 11
-203.23287626615709
 21
-505.15449670884612
 31
0.0
  0
LINE
  5
1E9
  8
DIMNSIONS
 62
     7
 10
-168.96647310412391
 20
-701.18229457771122
 30
0.0
 11
-203.23287626615709
 21
-712.64767269189838
 31
0.0
  0
LINE
  5
1EB
  8
DIMNSIONS
 62
     7
 10
-184.26640316203321
 20
-706.30157956379674
 30
0.0
 11
-198.36620896680861
 21
-684.58978260843355
 31
0.0
  0
LINE
  5
1EC
  8
DIMNSIONS
 62
     7
 10
-184.26640316203321
 20
-706.30157956379674
 30
0.0
 11
-185.62129469971441
 21
-680.44870893625489
 31
0.0
  0
LINE
  5
1ED
  8
DIMNSIONS
 62
     7
 10
-184.26640316203321
 20
-511.50058983694811
 30
0.0
 11
-185.6212946997143
 21
-537.35346046448979
 31
0.0
  0
LINE
  5
1EE
  8
DIMNSIONS
 62
     7
 10
-184.26640316203321
 20
-511.50058983694811
 30
0.0
 11
-198.3662089668085
 21
-533.21238679231112
 31
0.0
  0
ARC
  5
1EA
  8
DIMNSIONS
 62
     7
 10
106.8329911999999
 20
-608.90108470037239
 30
0.0
 40
306.96207224603882
 50
161.5
 51
198.5
  0
TEXT
  5
1EF
  8
DIMNSIONS
 62
     7
 10
-212.18463660159449
 20
-644.17886247815011
 30
0.0
 40
28.222222222222221
  1
37°
 50
90.0
 41
0.85
 11
-240.4068588238168
 21
-644.17886247815011
 31
0.0
 73
     3
  0
LINE
  5
1F0
  8
DIMNSIONS
 62
     7
 10
-63.469999999999992
 20
-418.45641460000002
 30
0.0
 11
195.08124772527279
 21
-418.45641460000002
 31
0.0
  0
LINE
  5
1F1
  8
DIMNSIONS
 62
     7
 10
141.0040404900042
 20
-438.53238915111422
 30
0.0
 11
194.00226644943481
 21
-443.1691355920679
 31
0.0
  0
LINE
  5
1F3
  8
DIMNSIONS
 62
     7
 10
174.0783725686299
 20
-441.42601981093833
 30
0.0
 11
178.12820270645739
 21
-466.99564097782371
 31
0.0
  0
LINE
  5
1F4
  8
DIMNSIONS
 62
     7
 10
174.0783725686299
 20
-441.42601981093833
 30
0.0
 11
164.8008177655577
 21
-465.59487637551911
 31
0.0
  0
ARC
  5
1F2
  8
DIMNSIONS
 62
     7
 10
-88.46527579999929
 20
-418.45641460000002
 30
0.0
 40
263.54652352527199
 50
344.1298521442323
 51
354.99999733656449
  0
LINE
  5
1F6
  8
DIMNSIONS
 62
     7
 10
175.0812477252727
 20
-418.45641460000002
 30
0.0
 11
168.38084977377031
 21
-393.45018901406252
 31
0.0
  0
LINE
  5
1F7
  8
DIMNSIONS
 62
     7
 10
175.0812477252727
 20
-418.45641460000002
 30
0.0
 11
181.7816456767751
 21
-393.45018901406252
 31
0.0
  0
ARC
  5
1F5
  8
DIMNSIONS
 62
     7
 10
-88.46527579999929
 20
-418.45641460000002
 30
0.0
 40
263.54652352527199
 50
0.0
 51
12.83474566507277
  0
TEXT
  5
1F8
  8
DIMNSIONS
 62
     7
 10
125.0
 20
-386.14944889032068
 30
0.0
 40
28.222222222222221
  1
5°
 41
0.85
 11
125.0
 21
-357.92722666809851
 31
0.0
 73
     3
  0
LINE
  5
1F9
  8
DIMNSIONS
 62
     7
 10
-100.0000000000004
 20
-813.72346949999985
 30
0.0
 11
-100.0000000000004
 21
-895.0
 31
0.0
  0
LINE
  5
1FA
  8
DIMNSIONS
 62
     7
 10
123.9829911999995
 20
-798.48715170297078
 30
0.0
 11
123.9829911999995
 21
-895.0
 31
0.0
  0
LINE
  5
1FC
  8
DIMNSIONS
 62
     7
 10
-100.0000000000004
 20
-875.0
 30
0.0
 11
-74.993774414062983
 21
-868.2996020484976
 31
0.0
  0
LINE
  5
1FD
  8
DIMNSIONS
 62
     7
 10
-100.0000000000004
 20
-875.0
 30
0.0
 11
-74.993774414062983
 21
-881.70039795150228
 31
0.0
  0
LINE
  5
1FE
  8
DIMNSIONS
 62
     7
 10
123.9829911999995
 20
-875.0
 30
0.0
 11
98.976765614062046
 21
-881.70039795150228
 31
0.0
  0
LINE
  5
1FF
  8
DIMNSIONS
 62
     7
 10
123.9829911999995
 20
-875.0
 30
0.0
 11
98.976765614062046
 21
-868.2996020484976
 31
0.0
  0
LINE
  5
1FB
  8
DIMNSIONS
 62
     7
 10
-100.0000000000004
 20
-875.0
 30
0.0
 11
123.9829911999995
 21
-875.0
 31
0.0
  0
TEXT
  5
200
  8
DIMNSIONS
 62
     7
 10
23.541666666666639
 20
-862.94444444444434
 30
0.0
 40
28.222222222222221
  1
224
 41
0.85
 11
23.541666666666639
 21
-834.72222222222206
 31
0.0
 73
     3
  0
LINE
  5
201
  8
DIMNSIONS
 62
     7
 10
-68.742008800000363
 20
-799.99999999999125
 30
0.0
 11
245.0
 21
-799.99999999999125
 31
0.0
  0
LINE
  5
202
  8
DIMNSIONS
 62
     7
 10
204.9829911999999
 20
-608.90108470037239
 30
0.0
 11
245.0
 21
-608.90108470037239
 31
0.0
  0
LINE
  5
204
  8
DIMNSIONS
 62
     7
 10
225.0
 20
-799.99999999999125
 30
0.0
 11
218.29960204849749
 21
-774.99377441405375
 31
0.0
  0
LINE
  5
205
  8
DIMNSIONS
 62
     7
 10
225.0
 20
-799.99999999999125
 30
0.0
 11
231.7003979515024
 21
-774.99377441405375
 31
0.0
  0
LINE
  5
206
  8
DIMNSIONS
 62
     7
 10
225.0
 20
-608.90108470037239
 30
0.0
 11
231.7003979515024
 21
-633.90731028630989
 31
0.0
  0
LINE
  5
207
  8
DIMNSIONS
 62
     7
 10
225.0
 20
-608.90108470037239
 30
0.0
 11
218.29960204849749
 21
-633.90731028630989
 31
0.0
  0
LINE
  5
203
  8
DIMNSIONS
 62
     7
 10
225.0
 20
-799.99999999999125
 30
0.0
 11
225.0
 21
-608.90108470037239
 31
0.0
  0
TEXT
  5
208
  8
DIMNSIONS
 62
     7
 10
212.9444444444444
 20
-730.90887568351525
 30
0.0
 40
28.222222222222221
  1
191
 50
90.0
 41
0.85
 11
184.7222222222222
 21
-730.90887568351525
 31
0.0
 73
     3
  0
LINE
  5
209
  8
DIMNSIONS
 62
     7
 10
-450.00000000000051
 20
370.0
 30
0.0
 11
-450.00000000000051
 21
470.00000000000011
 31
0.0
  0
LINE
  5
20A
  8
DIMNSIONS
 62
     7
 10
-425.0
 20
404.49999999999977
 30
0.0
 11
-425.0
 21
470.00000000000011
 31
0.0
  0
LINE
  5
20B
  8
DIMNSIONS
 62
     7
 10
-425.0
 20
450.00000000000011
 30
0.0
 11
-450.00000000000051
 21
450.00000000000011
 31
0.0
  0
LINE
  5
20D
  8
DIMNSIONS
 62
     7
 10
-450.00000000000051
 20
450.00000000000011
 30
0.0
 11
-475.00622558593801
 21
443.29960204849772
 31
0.0
  0
LINE
  5
20E
  8
DIMNSIONS
 62
     7
 10
-450.00000000000051
 20
450.00000000000011
 30
0.0
 11
-475.00622558593801
 21
456.70039795150262
 31
0.0
  0
LINE
  5
20C
  8
DIMNSIONS
 62
     7
 10
-450.00000000000051
 20
450.00000000000011
 30
0.0
 11
-517.77777777777783
 21
450.00000000000011
 31
0.0
  0
LINE
  5
210
  8
DIMNSIONS
 62
     7
 10
-425.0
 20
450.00000000000011
 30
0.0
 11
-399.9937744140625
 21
456.70039795150262
 31
0.0
  0
LINE
  5
211
  8
DIMNSIONS
 62
     7
 10
-425.0
 20
450.00000000000011
 30
0.0
 11
-399.9937744140625
 21
443.29960204849772
 31
0.0
  0
LINE
  5
20F
  8
DIMNSIONS
 62
     7
 10
-425.0
 20
450.00000000000011
 30
0.0
 11
-375.0
 21
450.00000000000011
 31
0.0
  0
TEXT
  5
212
  8
DIMNSIONS
 62
     7
 10
-517.77777777777783
 20
462.05555555555571
 30
0.0
 40
28.222222222222221
  1
25
 41
0.85
 11
-517.77777777777783
 21
490.277777777778
 31
0.0
 73
     3
  0
LINE
  5
213
  8
DIMNSIONS
 62
     7
 10
-425.0
 20
404.49999999999977
 30
0.0
 11
-425.0
 21
520.00000000000011
 31
0.0
  0
LINE
  5
214
  8
DIMNSIONS
 62
     7
 10
-400.0
 20
370.0
 30
0.0
 11
-400.0
 21
520.00000000000011
 31
0.0
  0
LINE
  5
215
  8
DIMNSIONS
 62
     7
 10
-400.0
 20
500.00000000000011
 30
0.0
 11
-425.0
 21
500.00000000000011
 31
0.0
  0
LINE
  5
217
  8
DIMNSIONS
 62
     7
 10
-425.0
 20
500.00000000000011
 30
0.0
 11
-450.0062255859375
 21
493.29960204849772
 31
0.0
  0
LINE
  5
218
  8
DIMNSIONS
 62
     7
 10
-425.0
 20
500.00000000000011
 30
0.0
 11
-450.0062255859375
 21
506.70039795150262
 31
0.0
  0
LINE
  5
216
  8
DIMNSIONS
 62
     7
 10
-425.0
 20
500.00000000000011
 30
0.0
 11
-517.77777777777783
 21
500.00000000000011
 31
0.0
  0
LINE
  5
21A
  8
DIMNSIONS
 62
     7
 10
-400.0
 20
500.00000000000011
 30
0.0
 11
-374.9937744140625
 21
506.70039795150262
 31
0.0
  0
LINE
  5
21B
  8
DIMNSIONS
 62
     7
 10
-400.0
 20
500.00000000000011
 30
0.0
 11
-374.9937744140625
 21
493.29960204849772
 31
0.0
  0
LINE
  5
219
  8
DIMNSIONS
 62
     7
 10
-400.0
 20
500.00000000000011
 30
0.0
 11
-350.0
 21
500.00000000000011
 31
0.0
  0
TEXT
  5
21C
  8
DIMNSIONS
 62
     7
 10
-517.77777777777783
 20
512.05555555555588
 30
0.0
 40
28.222222222222221
  1
25
 41
0.85
 11
-517.77777777777783
 21
540.27777777777806
 31
0.0
 73
     3
  0
LINE
  5
21D
  8
DIMNSIONS
 62
     7
 10
-400.0
 20
370.0
 30
0.0
 11
-400.0
 21
495.00000000000011
 31
0.0
  0
LINE
  5
21E
  8
DIMNSIONS
 62
     7
 10
-390.0
 20
412.00000000000011
 30
0.0
 11
-390.0
 21
495.00000000000011
 31
0.0
  0
LINE
  5
21F
  8
DIMNSIONS
 62
     7
 10
-390.0
 20
475.00000000000011
 30
0.0
 11
-400.0
 21
475.00000000000011
 31
0.0
  0
LINE
  5
221
  8
DIMNSIONS
 62
     7
 10
-400.0
 20
475.00000000000011
 30
0.0
 11
-425.0062255859375
 21
468.29960204849772
 31
0.0
  0
LINE
  5
222
  8
DIMNSIONS
 62
     7
 10
-400.0
 20
475.00000000000011
 30
0.0
 11
-425.0062255859375
 21
481.70039795150262
 31
0.0
  0
LINE
  5
220
  8
DIMNSIONS
 62
     7
 10
-400.0
 20
475.00000000000011
 30
0.0
 11
-450.0
 21
475.00000000000011
 31
0.0
  0
LINE
  5
224
  8
DIMNSIONS
 62
     7
 10
-390.0
 20
475.00000000000011
 30
0.0
 11
-364.9937744140625
 21
481.70039795150262
 31
0.0
  0
LINE
  5
225
  8
DIMNSIONS
 62
     7
 10
-390.0
 20
475.00000000000011
 30
0.0
 11
-364.9937744140625
 21
468.29960204849772
 31
0.0
  0
LINE
  5
223
  8
DIMNSIONS
 62
     7
 10
-390.0
 20
475.00000000000011
 30
0.0
 11
-297.22222222222217
 21
475.00000000000011
 31
0.0
  0
TEXT
  5
226
  8
DIMNSIONS
 62
     7
 10
-332.5
 20
487.05555555555583
 30
0.0
 40
28.222222222222221
  1
10
 41
0.85
 11
-332.5
 21
515.27777777777806
 31
0.0
 73
     3
  0
LINE
  5
227
  8
DIMNSIONS
 62
     7
 10
-460.0000000000004
 20
412.00000000000011
 30
0.0
 11
-460.0000000000004
 21
570.00000000000011
 31
0.0
  0
LINE
  5
228
  8
DIMNSIONS
 62
     7
 10
-390.0
 20
412.00000000000011
 30
0.0
 11
-390.0
 21
570.00000000000011
 31
0.0
  0
LINE
  5
22A
  8
DIMNSIONS
 62
     7
 10
-460.0000000000004
 20
550.0
 30
0.0
 11
-434.9937744140629
 21
556.70039795150274
 31
0.0
  0
LINE
  5
22B
  8
DIMNSIONS
 62
     7
 10
-460.0000000000004
 20
550.0
 30
0.0
 11
-434.9937744140629
 21
543.29960204849772
 31
0.0
  0
LINE
  5
22C
  8
DIMNSIONS
 62
     7
 10
-390.0
 20
550.0
 30
0.0
 11
-415.00622558593739
 21
543.29960204849772
 31
0.0
  0
LINE
  5
22D
  8
DIMNSIONS
 62
     7
 10
-390.0
 20
550.0
 30
0.0
 11
-415.00622558593739
 21
556.70039795150274
 31
0.0
  0
LINE
  5
229
  8
DIMNSIONS
 62
     7
 10
-460.0000000000004
 20
550.0
 30
0.0
 11
-390.0
 21
550.0
 31
0.0
  0
TEXT
  5
22E
  8
DIMNSIONS
 62
     7
 10
-442.63888888888908
 20
562.05555555555588
 30
0.0
 40
28.222222222222221
  1
70
 41
0.85
 11
-442.63888888888908
 21
590.27777777777806
 31
0.0
 73
     3
  0
LINE
  5
230
  8
DIMNSIONS
 62
     7
 10
-428.07428614292201
 20
313.62683030361478
 30
0.0
 11
-446.05784496709509
 21
295.00430999134772
 31
0.0
  0
LINE
  5
231
  8
DIMNSIONS
 62
     7
 10
-428.07428614292201
 20
313.62683030361478
 30
0.0
 11
-452.95976509124131
 21
306.49103404278628
 31
0.0
  0
LINE
  5
22F
  8
DIMNSIONS
 62
     7
 10
-428.07428614292201
 20
313.62683030361478
 30
0.0
 11
-532.5
 21
250.0000000000002
 31
0.0
  0
LINE
  5
232
  8
DIMNSIONS
 62
     7
 10
-532.5
 20
250.0000000000002
 30
0.0
 11
-384.30555555555549
 21
250.0000000000002
 31
0.0
  0
TEXT
  5
233
  8
DIMNSIONS
 62
     7
 10
-472.5
 20
262.05555555555583
 30
0.0
 40
28.222222222222221
  1
4-φ7
 41
0.85
 11
-472.5
 21
290.277777777778
 31
0.0
 73
     3
  0
LINE
  5
234
  8
DIMNSIONS
 62
     7
 10
-380.0
 20
350.0
 30
0.0
 11
-255.0
 21
350.0
 31
0.0
  0
LINE
  5
235
  8
DIMNSIONS
 62
     7
 10
-405.0
 20
384.49999999999972
 30
0.0
 11
-255.0
 21
384.49999999999972
 31
0.0
  0
LINE
  5
236
  8
DIMNSIONS
 62
     7
 10
-275.0
 20
384.49999999999972
 30
0.0
 11
-275.0
 21
350.0
 31
0.0
  0
LINE
  5
238
  8
DIMNSIONS
 62
     7
 10
-275.0
 20
350.0
 30
0.0
 11
-268.2996020484976
 21
324.9937744140625
 31
0.0
  0
LINE
  5
239
  8
DIMNSIONS
 62
     7
 10
-275.0
 20
350.0
 30
0.0
 11
-281.70039795150228
 21
324.9937744140625
 31
0.0
  0
LINE
  5
237
  8
DIMNSIONS
 62
     7
 10
-275.0
 20
350.0
 30
0.0
 11
-275.0
 21
204.4444444444446
 31
0.0
  0
LINE
  5
23B
  8
DIMNSIONS
 62
     7
 10
-275.0
 20
384.49999999999972
 30
0.0
 11
-281.70039795150228
 21
409.50622558593727
 31
0.0
  0
LINE
  5
23C
  8
DIMNSIONS
 62
     7
 10
-275.0
 20
384.49999999999972
 30
0.0
 11
-268.2996020484976
 21
409.50622558593727
 31
0.0
  0
LINE
  5
23A
  8
DIMNSIONS
 62
     7
 10
-275.0
 20
384.49999999999972
 30
0.0
 11
-275.0
 21
434.49999999999972
 31
0.0
  0
TEXT
  5
23D
  8
DIMNSIONS
 62
     7
 10
-287.05555555555549
 20
204.4444444444446
 30
0.0
 40
28.222222222222221
  1
34.5
 50
90.0
 41
0.85
 11
-315.27777777777771
 21
204.4444444444446
 31
0.0
 73
     3
  0
LINE
  5
23E
  8
DIMNSIONS
 62
     7
 10
-380.0
 20
350.0
 30
0.0
 11
-305.0
 21
350.0
 31
0.0
  0
LINE
  5
23F
  8
DIMNSIONS
 62
     7
 10
-405.0
 20
315.5
 30
0.0
 11
-305.0
 21
315.5
 31
0.0
  0
LINE
  5
240
  8
DIMNSIONS
 62
     7
 10
-325.0
 20
315.5
 30
0.0
 11
-325.0
 21
350.0
 31
0.0
  0
LINE
  5
242
  8
DIMNSIONS
 62
     7
 10
-325.0
 20
350.0
 30
0.0
 11
-331.70039795150228
 21
375.0062255859375
 31
0.0
  0
LINE
  5
243
  8
DIMNSIONS
 62
     7
 10
-325.0
 20
350.0
 30
0.0
 11
-318.2996020484976
 21
375.0062255859375
 31
0.0
  0
LINE
  5
241
  8
DIMNSIONS
 62
     7
 10
-325.0
 20
350.0
 30
0.0
 11
-325.0
 21
400.0
 31
0.0
  0
LINE
  5
245
  8
DIMNSIONS
 62
     7
 10
-325.0
 20
315.5
 30
0.0
 11
-318.2996020484976
 21
290.4937744140625
 31
0.0
  0
LINE
  5
246
  8
DIMNSIONS
 62
     7
 10
-325.0
 20
315.5
 30
0.0
 11
-331.70039795150228
 21
290.4937744140625
 31
0.0
  0
LINE
  5
244
  8
DIMNSIONS
 62
     7
 10
-325.0
 20
315.5
 30
0.0
 11
-325.0
 21
206.63956639566439
 31
0.0
  0
TEXT
  5
247
  8
DIMNSIONS
 62
     7
 10
-337.05555555555549
 20
206.63956639566439
 30
0.0
 40
28.222222222222221
  1
34.5
 50
90.0
 41
0.85
 11
-365.27777777777771
 21
206.63956639566439
 31
0.0
 73
     3
  0
LINE
  5
248
  8
DIMNSIONS
 62
     7
 10
-373.0
 20
395.00000000000011
 30
0.0
 11
-205.0
 21
395.00000000000011
 31
0.0
  0
LINE
  5
249
  8
DIMNSIONS
 62
     7
 10
-405.0
 20
384.49999999999972
 30
0.0
 11
-205.0
 21
384.49999999999972
 31
0.0
  0
LINE
  5
24A
  8
DIMNSIONS
 62
     7
 10
-225.0
 20
384.49999999999972
 30
0.0
 11
-225.0
 21
395.00000000000011
 31
0.0
  0
LINE
  5
24C
  8
DIMNSIONS
 62
     7
 10
-225.0
 20
395.00000000000011
 30
0.0
 11
-231.7003979515024
 21
420.00622558593773
 31
0.0
  0
LINE
  5
24D
  8
DIMNSIONS
 62
     7
 10
-225.0
 20
395.00000000000011
 30
0.0
 11
-218.29960204849749
 21
420.00622558593773
 31
0.0
  0
LINE
  5
24B
  8
DIMNSIONS
 62
     7
 10
-225.0
 20
395.00000000000011
 30
0.0
 11
-225.0
 21
495.55555555555571
 31
0.0
  0
LINE
  5
24F
  8
DIMNSIONS
 62
     7
 10
-225.0
 20
384.49999999999972
 30
0.0
 11
-218.29960204849749
 21
359.49377441406222
 31
0.0
  0
LINE
  5
250
  8
DIMNSIONS
 62
     7
 10
-225.0
 20
384.49999999999972
 30
0.0
 11
-231.7003979515024
 21
359.49377441406222
 31
0.0
  0
LINE
  5
24E
  8
DIMNSIONS
 62
     7
 10
-225.0
 20
384.49999999999972
 30
0.0
 11
-225.0
 21
334.49999999999972
 31
0.0
  0
TEXT
  5
251
  8
DIMNSIONS
 62
     7
 10
-237.05555555555549
 20
425.00000000000011
 30
0.0
 40
28.222222222222221
  1
10.5
 50
90.0
 41
0.85
 11
-265.27777777777771
 21
425.00000000000011
 31
0.0
 73
     3
  0
LINE
  5
252
  8
DIMNSIONS
 62
     7
 10
-373.0
 20
305.0
 30
0.0
 11
-155.0
 21
305.0
 31
0.0
  0
LINE
  5
253
  8
DIMNSIONS
 62
     7
 10
-373.0
 20
395.00000000000011
 30
0.0
 11
-155.0
 21
395.00000000000011
 31
0.0
  0
LINE
  5
255
  8
DIMNSIONS
 62
     7
 10
-175.0
 20
305.0
 30
0.0
 11
-181.7003979515024
 21
330.0062255859375
 31
0.0
  0
LINE
  5
256
  8
DIMNSIONS
 62
     7
 10
-175.0
 20
305.0
 30
0.0
 11
-168.29960204849749
 21
330.0062255859375
 31
0.0
  0
LINE
  5
257
  8
DIMNSIONS
 62
     7
 10
-175.0
 20
395.00000000000011
 30
0.0
 11
-168.2996020484976
 21
369.99377441406273
 31
0.0
  0
LINE
  5
258
  8
DIMNSIONS
 62
     7
 10
-175.0
 20
395.00000000000011
 30
0.0
 11
-181.7003979515024
 21
369.99377441406273
 31
0.0
  0
LINE
  5
254
  8
DIMNSIONS
 62
     7
 10
-175.0
 20
305.0
 30
0.0
 11
-175.0
 21
395.00000000000011
 31
0.0
  0
TEXT
  5
259
  8
DIMNSIONS
 62
     7
 10
-187.0555555555556
 20
332.36111111111109
 30
0.0
 40
28.222222222222221
  1
90
 50
90.0
 41
0.85
 11
-215.2777777777778
 21
332.36111111111109
 31
0.0
 73
     3
  0
LINE
  5
25A
  8
DIMNSIONS
 62
     7
 10
-680.0
 20
525.0
 30
0.0
 11
-720.0
 21
525.0
 31
0.0
  0
LINE
  5
25B
  8
DIMNSIONS
 62
     7
 10
-645.0
 20
429.60000000000031
 30
0.0
 11
-720.0
 21
429.60000000000031
 31
0.0
  0
LINE
  5
25D
  8
DIMNSIONS
 62
     7
 10
-700.0
 20
525.0
 30
0.0
 11
-693.2996020484976
 21
499.99377441406273
 31
0.0
  0
LINE
  5
25E
  8
DIMNSIONS
 62
     7
 10
-700.0
 20
525.0
 30
0.0
 11
-706.7003979515024
 21
499.99377441406273
 31
0.0
  0
LINE
  5
25F
  8
DIMNSIONS
 62
     7
 10
-700.0
 20
429.60000000000031
 30
0.0
 11
-706.7003979515024
 21
454.60622558593781
 31
0.0
  0
LINE
  5
260
  8
DIMNSIONS
 62
     7
 10
-700.0
 20
429.60000000000031
 30
0.0
 11
-693.2996020484976
 21
454.60622558593781
 31
0.0
  0
LINE
  5
25C
  8
DIMNSIONS
 62
     7
 10
-700.0
 20
525.0
 30
0.0
 11
-700.0
 21
429.60000000000031
 31
0.0
  0
TEXT
  5
261
  8
DIMNSIONS
 62
     7
 10
-712.05555555555543
 20
442.02222222222252
 30
0.0
 40
28.222222222222221
  1
95.4
 50
90.0
 41
0.85
 11
-740.27777777777771
 21
442.02222222222252
 31
0.0
 73
     3
  0
LINE
  5
262
  8
DIMNSIONS
 62
     7
 10
-677.0
 20
305.0
 30
0.0
 11
-720.0
 21
305.0
 31
0.0
  0
LINE
  5
263
  8
DIMNSIONS
 62
     7
 10
-676.0
 20
394.99999999999972
 30
0.0
 11
-720.0
 21
394.99999999999972
 31
0.0
  0
LINE
  5
265
  8
DIMNSIONS
 62
     7
 10
-700.0
 20
305.0
 30
0.0
 11
-706.7003979515024
 21
330.0062255859375
 31
0.0
  0
LINE
  5
266
  8
DIMNSIONS
 62
     7
 10
-700.0
 20
305.0
 30
0.0
 11
-693.2996020484976
 21
330.0062255859375
 31
0.0
  0
LINE
  5
267
  8
DIMNSIONS
 62
     7
 10
-700.0
 20
394.99999999999972
 30
0.0
 11
-693.2996020484976
 21
369.99377441406227
 31
0.0
  0
LINE
  5
268
  8
DIMNSIONS
 62
     7
 10
-700.0
 20
394.99999999999972
 30
0.0
 11
-706.7003979515024
 21
369.99377441406227
 31
0.0
  0
LINE
  5
264
  8
DIMNSIONS
 62
     7
 10
-700.0
 20
305.0
 30
0.0
 11
-700.0
 21
394.99999999999972
 31
0.0
  0
TEXT
  5
269
  8
DIMNSIONS
 62
     7
 10
-712.05555555555543
 20
332.36111111111092
 30
0.0
 40
28.222222222222221
  1
90
 50
90.0
 41
0.85
 11
-740.27777777777771
 21
332.36111111111092
 31
0.0
 73
     3
  0
LINE
  5
26A
  8
DIMNSIONS
 62
     7
 10
-660.0
 20
288.0
 30
0.0
 11
-660.0
 21
230.0000000000002
 31
0.0
  0
LINE
  5
26B
  8
DIMNSIONS
 62
     7
 10
-590.0
 20
288.0
 30
0.0
 11
-590.0
 21
230.0000000000002
 31
0.0
  0
LINE
  5
26D
  8
DIMNSIONS
 62
     7
 10
-660.0
 20
250.0000000000002
 30
0.0
 11
-634.9937744140625
 21
256.70039795150262
 31
0.0
  0
LINE
  5
26E
  8
DIMNSIONS
 62
     7
 10
-660.0
 20
250.0000000000002
 30
0.0
 11
-634.9937744140625
 21
243.29960204849769
 31
0.0
  0
LINE
  5
26F
  8
DIMNSIONS
 62
     7
 10
-590.0
 20
250.0000000000002
 30
0.0
 11
-615.00622558593739
 21
243.29960204849769
 31
0.0
  0
LINE
  5
270
  8
DIMNSIONS
 62
     7
 10
-590.0
 20
250.0000000000002
 30
0.0
 11
-615.00622558593739
 21
256.70039795150268
 31
0.0
  0
LINE
  5
26C
  8
DIMNSIONS
 62
     7
 10
-660.0
 20
250.0000000000002
 30
0.0
 11
-590.0
 21
250.0000000000002
 31
0.0
  0
TEXT
  5
271
  8
DIMNSIONS
 62
     7
 10
-642.6388888888888
 20
262.05555555555571
 30
0.0
 40
28.222222222222221
  1
70
 41
0.85
 11
-642.6388888888888
 21
290.27777777777789
 31
0.0
 73
     3
  0
LINE
  5
272
  8
DIMNSIONS
 62
     7
 10
-666.82500000000027
 20
-800.0
 30
0.0
 11
-720.0
 21
-800.0
 31
0.0
  0
LINE
  5
273
  8
DIMNSIONS
 62
     7
 10
-666.82500000000027
 20
-418.44434960000001
 30
0.0
 11
-720.0
 21
-418.44434960000001
 31
0.0
  0
LINE
  5
275
  8
DIMNSIONS
 62
     7
 10
-700.0
 20
-800.0
 30
0.0
 11
-706.7003979515024
 21
-774.99377441406239
 31
0.0
  0
LINE
  5
276
  8
DIMNSIONS
 62
     7
 10
-700.0
 20
-800.0
 30
0.0
 11
-693.2996020484976
 21
-774.99377441406239
 31
0.0
  0
LINE
  5
277
  8
DIMNSIONS
 62
     7
 10
-700.0
 20
-418.44434960000001
 30
0.0
 11
-693.2996020484976
 21
-443.45057518593768
 31
0.0
  0
LINE
  5
278
  8
DIMNSIONS
 62
     7
 10
-700.0
 20
-418.44434960000001
 30
0.0
 11
-706.7003979515024
 21
-443.45057518593768
 31
0.0
  0
LINE
  5
274
  8
DIMNSIONS
 62
     7
 10
-700.0
 20
-800.0
 30
0.0
 11
-700.0
 21
-418.44434960000001
 31
0.0
  0
TEXT
  5
279
  8
DIMNSIONS
 62
     7
 10
-712.05555555555543
 20
-635.68050813333355
 30
0.0
 40
28.222222222222221
  1
382
 50
90.0
 41
0.85
 11
-740.27777777777771
 21
-635.68050813333355
 31
0.0
 73
     3
  0
TEXT
  5
27A
  8
DATA
 62
     7
 10
599.99999999999989
 20
-942.49976499999991
 30
0.0
 40
25.399999999999999
  1
JBL
 41
0.85
 11
599.99999999999989
 21
-917.09976500000005
 31
0.0
 73
     3
  0
TEXT
  5
27B
  8
DATA
 62
     7
 10
-699.99999999999989
 20
-1084.5636649999999
 30
0.0
 40
16.93333333333333
  1
仕様および外観は予告なく変更されることがありますので、ご了承ください。
 41
0.85
 11
-699.99999999999989
 21
-1067.6303316666661
 31
0.0
 73
     3
  0
LINE
  5
27C
  8
DATA
 62
     7
 10
-88.465275799999759
 20
-799.98790959999985
 30
0.0
 11
121.0801466091993
 21
-781.65505083001892
 31
0.0
  0
LINE
  5
27D
  8
DATA
 62
     7
 10
-88.465275799999759
 20
-418.45641460000002
 30
0.0
 11
121.0801466091993
 21
-436.78927336998458
 31
0.0
  0
LINE
  5
27E
  8
DATA
 62
     7
 10
-636.4317772000004
 20
-796.60175939999965
 30
0.0
 11
-384.16822280000002
 21
-796.60175939999965
 31
0.0
  0
LINE
  5
27F
  8
DATA
 62
     7
 10
-624.93174940000017
 20
-791.14936999999975
 30
0.0
 11
-395.66825060000008
 21
-791.14936999999975
 31
0.0
  0
LINE
  5
280
  8
DATA
 62
     7
 10
-384.16822280000002
 20
-421.84261560000022
 30
0.0
 11
-636.4317772000004
 21
-421.84261560000022
 31
0.0
  0
LINE
  5
281
  8
DATA
 62
     7
 10
-382.00922280000032
 20
-427.95753860000008
 30
0.0
 11
-638.59077720000016
 21
-427.95753860000008
 31
0.0
  0
LINE
  5
282
  8
DATA
 62
     7
 10
-483.1324140000001
 20
-782.64771059999987
 30
0.0
 11
-429.69477640000008
 21
-768.12432079999985
 31
0.0
  0
ARC
  5
283
  8
DATA
 62
     7
 10
-532.27072284500525
 20
-828.15126581053494
 30
0.0
 40
163.15481997710091
 50
47.413560435655882
 51
58.271070705691052
  0
ARC
  5
284
  8
DATA
 62
     7
 10
-416.24269075894551
 20
-525.7578518847838
 30
0.0
 40
51.053084925283777
 50
46.334467881648727
 51
126.7653983560093
  0
ARC
  5
285
  8
DATA
 62
     7
 10
-510.30000000000013
 20
-682.68682339999987
 30
0.0
 40
77.999996400000001
 50
111.8734890242732
 51
348.64597999999978
  0
ARC
  5
286
  8
DATA
 62
     7
 10
-510.30000000000013
 20
-682.68682339999987
 30
0.0
 40
87.000003799999945
 50
114.113379826729
 51
345.59914309250797
  0
ARC
  5
287
  8
DATA
 62
     7
 10
-510.30000000000013
 20
-682.68682339999987
 30
0.0
 40
91.995345599999922
 50
113.07846879226371
 51
344.019813453334
  0
LINE
  5
288
  8
DATA
 62
     7
 10
-373.77999999999969
 20
-418.44434960000001
 30
0.0
 11
-646.82500000000016
 21
-418.44434960000001
 31
0.0
  0
LINE
  5
289
  8
DATA
 62
     7
 10
-646.82500000000016
 20
-800.0
 30
0.0
 11
-373.77999999999969
 21
-800.00000000000011
 31
0.0
  0
ARC
  5
28A
  8
DATA
 62
     7
 10
-510.30000000000291
 20
3122.798525970315
 30
0.0
 40
3345.2985259703141
 50
267.87458367191778
 51
272.12541632808222
  0
ARC
  5
28B
  8
DATA
 62
     7
 10
-510.30000000000291
 20
3120.298525970315
 30
0.0
 40
3345.2985259703141
 50
267.78477805530872
 51
272.21522194469128
  0
ARC
  5
28C
  8
DATA
 62
     7
 10
-454.39814044794912
 20
-21.01700880000044
 30
0.0
 40
19.999999999999979
 50
22.699999999999701
 51
90.0
  0
LINE
  5
28D
  8
DATA
 62
     7
 10
-650.0
 20
-796.82499999999982
 30
0.0
 11
-650.0
 21
-421.61934960000031
 31
0.0
  0
LINE
  5
28E
  8
DATA
 62
     7
 10
-639.60677720000012
 20
-425.0176156
 30
0.0
 11
-639.60677720000012
 21
-793.42675940000004
 31
0.0
  0
LINE
  5
28F
  8
DATA
 62
     7
 10
-637.63174939999999
 20
-440.65753860000012
 30
0.0
 11
-637.63174939999999
 21
-778.44937000000004
 31
0.0
  0
LINE
  5
290
  8
DATA
 62
     7
 10
-638.59077720000016
 20
-427.95753860000008
 30
0.0
 11
-638.59077720000016
 21
-791.14936999999975
 31
0.0
  0
LINE
  5
291
  8
DATA
 62
     7
 10
-604.25769880000018
 20
-633.4310164000002
 30
0.0
 11
-595.73749740000005
 21
-602.08159980000005
 31
0.0
  0
ARC
  5
292
  8
DATA
 62
     7
 10
-552.1582543612011
 20
-657.13272846654695
 30
0.0
 40
44.486463481937527
 50
28.2253576110684
 51
53.433108541052121
  0
ARC
  5
293
  8
DATA
 62
     7
 10
-576.42626725972104
 20
-641.30392436425007
 30
0.0
 40
21.14379983447024
 50
107.8703354028424
 51
147.60284779728531
  0
ARC
  5
294
  8
DATA
 62
     7
 10
-510.30000000000013
 20
-682.68682339999987
 30
0.0
 40
103.5869404000002
 50
254.7952939999997
 51
285.20470599999987
  0
LINE
  5
295
  8
DATA
 62
     7
 10
-610.26088720000018
 20
-655.51923739999984
 30
0.0
 11
-604.25769880000018
 21
-633.4310164000002
 31
0.0
  0
LINE
  5
296
  8
DATA
 62
     7
 10
-610.26088720000018
 20
-709.85443479999981
 30
0.0
 11
-595.73749740000005
 21
-763.29204700000014
 31
0.0
  0
ARC
  5
297
  8
DATA
 62
     7
 10
-636.4317772000004
 20
-793.42675940000004
 30
0.0
 40
3.1749999999997272
 50
180.0
 51
270.0
  0
ARC
  5
298
  8
DATA
 62
     7
 10
-646.82500000000016
 20
-796.82499999999982
 30
0.0
 40
3.1749999999997272
 50
180.0
 51
270.0
  0
LINE
  5
299
  8
DATA
 62
     7
 10
-638.59077720000016
 20
-791.14936999999975
 30
0.0
 11
-624.93174940000017
 21
-791.14936999999975
 31
0.0
  0
LINE
  5
29A
  8
DATA
 62
     7
 10
-626.45574940000006
 20
-788.10136999999975
 30
0.0
 11
-633.82174940000004
 21
-788.10136999999975
 31
0.0
  0
LINE
  5
29B
  8
DATA
 62
     7
 10
-634.5837494000001
 20
-787.3393699999998
 30
0.0
 11
-634.5837494000001
 21
-779.97336999999982
 31
0.0
  0
ARC
  5
29C
  8
DATA
 62
     7
 10
-633.82174940000004
 20
-787.3393699999998
 30
0.0
 40
0.7619999999997164
 50
180.0
 51
270.0
  0
ARC
  5
29D
  8
DATA
 62
     7
 10
-636.10774939999999
 20
-779.97336999999982
 30
0.0
 40
1.523999999999887
 50
0.0
 51
90.0
  0
LINE
  5
29E
  8
DATA
 62
     7
 10
-636.10774939999999
 20
-778.44937000000004
 30
0.0
 11
-637.63174939999999
 21
-778.44937000000004
 31
0.0
  0
ARC
  5
29F
  8
DATA
 62
     7
 10
-626.45574940000006
 20
-789.62536999999986
 30
0.0
 40
1.523999999999887
 50
0.0
 51
90.0
  0
LINE
  5
2A0
  8
DATA
 62
     7
 10
-624.93174940000017
 20
-791.14936999999975
 30
0.0
 11
-624.93174940000017
 21
-789.62536999999986
 31
0.0
  0
CIRCLE
  5
2A1
  8
DATA
 62
     7
 10
-624.9000501999999
 20
-760.14153260000001
 30
0.0
 40
5.9999879999995764
  0
ARC
  5
2A2
  8
DATA
 62
     7
 10
-510.30000000000013
 20
-682.68682339999987
 30
0.0
 40
103.5869403999998
 50
164.79529400000001
 51
195.2047059999999
  0
ARC
  5
2A3
  8
DATA
 62
     7
 10
-510.30000000000013
 20
-682.68682339999987
 30
0.0
 40
103.5869403999998
 50
164.79529400000001
 51
195.2047059999999
  0
LINE
  5
2A4
  8
DATA
 62
     7
 10
-537.46758599999998
 20
-782.64771059999987
 30
0.0
 11
-590.9052236
 21
-768.12432079999985
 31
0.0
  0
ARC
  5
2A5
  8
DATA
 62
     7
 10
-589.10174740000002
 20
-761.48857079999982
 30
0.0
 40
6.8764404000000328
 50
195.20470599999891
 51
254.7952939999968
  0
LINE
  5
2A6
  8
DATA
 62
     7
 10
-628.32905019999987
 20
-760.14153260000001
 30
0.0
 11
-621.47105019999981
 21
-760.14153260000001
 31
0.0
  0
LINE
  5
2A7
  8
DATA
 62
     7
 10
-624.9000501999999
 20
-763.57053260000009
 30
0.0
 11
-624.9000501999999
 21
-756.71253260000015
 31
0.0
  0
ARC
  5
2A8
  8
DATA
 62
     7
 10
-541.85588678081444
 20
-649.64954599944258
 30
0.0
 40
31.916437465712232
 50
348.54141461805187
 51
25.1343893067945
  0
ARC
  5
2A9
  8
DATA
 62
     7
 10
-490.20306048619199
 20
-660.06913164411856
 30
0.0
 40
20.77688261423463
 50
168.67769905050679
 51
251.41726616380899
  0
ARC
  5
2AA
  8
DATA
 62
     7
 10
-471.48154637461272
 20
-621.33732618606996
 30
0.0
 40
63.685017251833422
 50
246.55079004985711
 51
267.39897302578822
  0
ARC
  5
2AB
  8
DATA
 62
     7
 10
-471.32102476655962
 20
-755.93098890879503
 30
0.0
 40
71.039786601390404
 50
69.521563955829919
 51
92.461163536995869
  0
ARC
  5
2AC
  8
DATA
 62
     7
 10
-602.76462998216948
 20
-625.74969190440675
 30
0.0
 40
9.4794661358954695
 50
292.09670450405252
 51
333.52709141821123
  0
ARC
  5
2AD
  8
DATA
 62
     7
 10
-510.30000000000013
 20
-682.68682339999987
 30
0.0
 40
36.000004199999857
 50
89.64539100000033
 51
356.38492999999971
  0
ARC
  5
2AE
  8
DATA
 62
     7
 10
-600.40405309544337
 20
-627.90243053044196
 30
0.0
 40
6.7391280543824728
 50
235.1219591766978
 51
280.30304233735342
  0
CIRCLE
  5
2AF
  8
DATA
 62
     7
 10
-624.9000501999999
 20
-609.47586999999987
 30
0.0
 40
5.9999879999995764
  0
CIRCLE
  5
2B0
  8
DATA
 62
     7
 10
-587.75470920000043
 20
-605.23211420000018
 30
0.0
 40
3.9999920000000202
  0
ARC
  5
2B1
  8
DATA
 62
     7
 10
-589.10174740000002
 20
-603.88507600000003
 30
0.0
 40
6.8764403999999324
 50
105.2047060000031
 51
164.7952939999991
  0
CIRCLE
  5
2B2
  8
DATA
 62
     7
 10
-624.9000501999999
 20
-458.81018200000022
 30
0.0
 40
5.9999879999995764
  0
ARC
  5
2B3
  8
DATA
 62
     7
 10
-636.4317772000004
 20
-425.0176156
 30
0.0
 40
3.1749999999999541
 50
90.0
 51
180.0
  0
ARC
  5
2B4
  8
DATA
 62
     7
 10
-646.82500000000016
 20
-421.61934960000031
 30
0.0
 40
3.175000000000181
 50
90.0
 51
180.0
  0
ARC
  5
2B5
  8
DATA
 62
     7
 10
-636.10774939999999
 20
-439.13353860000001
 30
0.0
 40
1.5240000000001139
 50
270.0
 51
0.0
  0
ARC
  5
2B6
  8
DATA
 62
     7
 10
-626.45574940000006
 20
-429.48153860000019
 30
0.0
 40
1.523999999999887
 50
270.0
 51
0.0
  0
ARC
  5
2B7
  8
DATA
 62
     7
 10
-633.82174940000004
 20
-431.76753860000008
 30
0.0
 40
0.7619999999999437
 50
90.0
 51
180.0
  0
LINE
  5
2B8
  8
DATA
 62
     7
 10
-634.5837494000001
 20
-431.76753860000008
 30
0.0
 11
-634.5837494000001
 21
-439.13353860000001
 31
0.0
  0
LINE
  5
2B9
  8
DATA
 62
     7
 10
-626.45574940000006
 20
-431.00553860000008
 30
0.0
 11
-633.82174940000004
 21
-431.00553860000008
 31
0.0
  0
LINE
  5
2BA
  8
DATA
 62
     7
 10
-624.93174940000017
 20
-427.95753860000008
 30
0.0
 11
-624.93174940000017
 21
-429.48153860000019
 31
0.0
  0
LINE
  5
2BB
  8
DATA
 62
     7
 10
-636.10774939999999
 20
-440.65753860000012
 30
0.0
 11
-637.63174939999999
 21
-440.65753860000012
 31
0.0
  0
LINE
  5
2BC
  8
DATA
 62
     7
 10
-573.80000000000018
 20
-443.0567210000001
 30
0.0
 11
-573.80000000000018
 21
-568.53272100000027
 31
0.0
  0
ARC
  5
2BD
  8
DATA
 62
     7
 10
-510.30000000000013
 20
-505.7947210000001
 30
0.0
 40
11.4299999999999
 50
282.45377700000012
 51
77.546222999999927
  0
ARC
  5
2BE
  8
DATA
 62
     7
 10
-593.28205400000013
 20
-516.33572100000015
 30
0.0
 40
11.810999999999691
 50
180.0
 51
0.0
  0
ARC
  5
2BF
  8
DATA
 62
     7
 10
-593.28205400000013
 20
-516.33572100000015
 30
0.0
 40
9.3980000000001382
 50
180.0
 51
0.0
  0
ARC
  5
2C0
  8
DATA
 62
     7
 10
-510.30000000000013
 20
-505.7947210000001
 30
0.0
 40
11.4299999999999
 50
102.4537770000001
 51
257.54622299999988
  0
LINE
  5
2C1
  8
DATA
 62
     7
 10
-507.8351078
 20
-490.34740620000019
 30
0.0
 11
-507.8351078
 21
-521.24201040000003
 31
0.0
  0
LINE
  5
2C2
  8
DATA
 62
     7
 10
-512.76489219999985
 20
-490.34740620000019
 30
0.0
 11
-512.76489219999985
 21
-521.24201040000003
 31
0.0
  0
LINE
  5
2C3
  8
DATA
 62
     7
 10
-528.07999999999993
 20
-481.029721
 30
0.0
 11
-528.07999999999993
 21
-530.55972100000008
 31
0.0
  0
ARC
  5
2C4
  8
DATA
 62
     7
 10
-573.03800000000047
 20
-568.53272100000027
 30
0.0
 40
0.7619999999997164
 50
180.0
 51
270.0
  0
ARC
  5
2C5
  8
DATA
 62
     7
 10
-526.55600000000049
 20
-530.55972100000008
 30
0.0
 40
1.523999999999887
 50
180.0
 51
270.0
  0
ARC
  5
2C6
  8
DATA
 62
     7
 10
-522.02821551346915
 20
-521.24202946484615
 30
0.0
 40
14.193107713481689
 50
350.21738254287573
 51
0.0000769623708834
  0
ARC
  5
2C7
  8
DATA
 62
     7
 10
-516.20389068097109
 20
-522.24628823653461
 30
0.0
 40
8.2828373785550742
 50
337.4006945748074
 51
350.21767436218261
  0
ARC
  5
2C8
  8
DATA
 62
     7
 10
-512.55066318637455
 20
-523.76690718943121
 30
0.0
 40
4.3257736784774643
 50
314.85944740796538
 51
337.40043874137052
  0
ARC
  5
2C9
  8
DATA
 62
     7
 10
-510.30000996256513
 20
-526.0286382965221
 30
0.0
 40
1.135026503521724
 50
270.00050290713273
 51
314.8597510333604
  0
ARC
  5
2CA
  8
DATA
 62
     7
 10
-510.29999003743512
 20
-526.0286382965221
 30
0.0
 40
1.1350265035215741
 50
225.1402489666396
 51
269.99949709286722
  0
ARC
  5
2CB
  8
DATA
 62
     7
 10
-508.04933681362633
 20
-523.76690718943121
 30
0.0
 40
4.3257736784771286
 50
202.59956125863181
 51
225.14055259203889
  0
ARC
  5
2CC
  8
DATA
 62
     7
 10
-504.39610931902911
 20
-522.24628823653461
 30
0.0
 40
8.2828373785549161
 50
189.78232563781739
 51
202.59930542519251
  0
ARC
  5
2CD
  8
DATA
 62
     7
 10
-498.57178448653121
 20
-521.24202946484615
 30
0.0
 40
14.19310771348189
 50
179.99992303762909
 51
189.78261745712419
  0
LINE
  5
2CE
  8
DATA
 62
     7
 10
-526.55600000000049
 20
-479.50572100000022
 30
0.0
 11
-494.04400000000032
 21
-479.50572100000022
 31
0.0
  0
ARC
  5
2CF
  8
DATA
 62
     7
 10
-593.28205400000013
 20
-495.25372099999998
 30
0.0
 40
11.81100000000014
 50
0.0
 51
180.0
  0
ARC
  5
2D0
  8
DATA
 62
     7
 10
-593.28205400000013
 20
-495.25372099999998
 30
0.0
 40
9.3980000000001382
 50
0.0
 51
180.0
  0
LINE
  5
2D1
  8
DATA
 62
     7
 10
-605.09305400000005
 20
-495.25372099999998
 30
0.0
 11
-605.09305400000005
 21
-516.33572100000015
 31
0.0
  0
LINE
  5
2D2
  8
DATA
 62
     7
 10
-602.68005400000027
 20
-495.25372099999998
 30
0.0
 11
-602.68005400000027
 21
-516.33572100000015
 31
0.0
  0
LINE
  5
2D3
  8
DATA
 62
     7
 10
-581.47105400000009
 20
-495.25372099999998
 30
0.0
 11
-581.47105400000009
 21
-516.33572100000015
 31
0.0
  0
LINE
  5
2D4
  8
DATA
 62
     7
 10
-583.88405400000011
 20
-495.25372099999998
 30
0.0
 11
-583.88405400000011
 21
-516.33572100000015
 31
0.0
  0
ARC
  5
2D5
  8
DATA
 62
     7
 10
-526.55600000000049
 20
-481.029721
 30
0.0
 40
1.523999999999887
 50
90.0
 51
180.0
  0
ARC
  5
2D6
  8
DATA
 62
     7
 10
-522.02821551346915
 20
-490.34738713515412
 30
0.0
 40
14.19310771348189
 50
359.99992303762912
 51
9.7826174571242728
  0
ARC
  5
2D7
  8
DATA
 62
     7
 10
-516.20389068097109
 20
-489.34312836346561
 30
0.0
 40
8.2828373785549161
 50
9.7823256378173404
 51
22.59930542519254
  0
ARC
  5
2D8
  8
DATA
 62
     7
 10
-512.55066318637455
 20
-487.8225094105689
 30
0.0
 40
4.3257736784776366
 50
22.59956125863231
 51
45.140552592034609
  0
ARC
  5
2D9
  8
DATA
 62
     7
 10
-510.30000996256513
 20
-485.56077830347812
 30
0.0
 40
1.1350265035215741
 50
45.140248966639589
 51
89.999497092867244
  0
ARC
  5
2DA
  8
DATA
 62
     7
 10
-510.29999003743512
 20
-485.56077830347812
 30
0.0
 40
1.135026503521724
 50
90.000502907132784
 51
134.8597510333604
  0
ARC
  5
2DB
  8
DATA
 62
     7
 10
-508.04933681362633
 20
-487.8225094105689
 30
0.0
 40
4.3257736784771428
 50
134.85944740796111
 51
157.40043874136529
  0
ARC
  5
2DC
  8
DATA
 62
     7
 10
-504.39610931902911
 20
-489.34312836346561
 30
0.0
 40
8.2828373785550742
 50
157.4006945748074
 51
170.21767436218261
  0
ARC
  5
2DD
  8
DATA
 62
     7
 10
-498.57178448653121
 20
-490.34738713515412
 30
0.0
 40
14.193107713481689
 50
170.2173825428757
 51
180.00007696237091
  0
ARC
  5
2DE
  8
DATA
 62
     7
 10
-494.04400000000032
 20
-481.029721
 30
0.0
 40
1.523999999999887
 50
0.0
 51
90.0
  0
ARC
  5
2DF
  8
DATA
 62
     7
 10
-573.03800000000047
 20
-443.0567210000001
 30
0.0
 40
0.7619999999997164
 50
90.0
 51
180.0
  0
ARC
  5
2E0
  8
DATA
 62
     7
 10
-447.56200000000041
 20
-443.0567210000001
 30
0.0
 40
0.7620000000001709
 50
0.0
 51
90.0
  0
LINE
  5
2E1
  8
DATA
 62
     7
 10
-447.56200000000041
 20
-442.29472099999998
 30
0.0
 11
-573.03800000000047
 21
-442.29472099999998
 31
0.0
  0
LINE
  5
2E2
  8
DATA
 62
     7
 10
-628.32905019999987
 20
-458.81018200000022
 30
0.0
 11
-621.47105019999981
 21
-458.81018200000022
 31
0.0
  0
LINE
  5
2E3
  8
DATA
 62
     7
 10
-624.9000501999999
 20
-462.2391820000002
 30
0.0
 11
-624.9000501999999
 21
-455.38118200000031
 31
0.0
  0
LINE
  5
2E4
  8
DATA
 62
     7
 10
-590.04070920000049
 20
-605.23211420000018
 30
0.0
 11
-585.46870920000038
 21
-605.23211420000018
 31
0.0
  0
LINE
  5
2E5
  8
DATA
 62
     7
 10
-587.75470920000043
 20
-607.5181141999999
 30
0.0
 11
-587.75470920000043
 21
-602.94611420000001
 31
0.0
  0
LINE
  5
2E6
  8
DATA
 62
     7
 10
-628.32905019999987
 20
-609.47586999999987
 30
0.0
 11
-621.47105019999981
 21
-609.47586999999987
 31
0.0
  0
LINE
  5
2E7
  8
DATA
 62
     7
 10
-624.9000501999999
 20
-612.90487000000019
 30
0.0
 11
-624.9000501999999
 21
-606.04687000000013
 31
0.0
  0
ARC
  5
2E8
  8
DATA
 62
     7
 10
-648.25949153404827
 20
-581.0866290481481
 30
0.0
 40
157.41281151294419
 50
39.976975344769713
 51
61.677211984572857
  0
ARC
  5
2E9
  8
DATA
 62
     7
 10
-393.36223489123267
 20
-542.52156665975838
 30
0.0
 40
78.616149785771455
 50
132.8225574465512
 51
153.16673121462051
  0
ARC
  5
2EA
  8
DATA
 62
     7
 10
-524.64931806623588
 20
-477.73296869849321
 30
0.0
 40
67.795253657731863
 50
316.89693325064428
 51
334.39227825475831
  0
ARC
  5
2EB
  8
DATA
 62
     7
 10
-492.03921448155961
 20
-505.39018820062711
 30
0.0
 40
25.17412433538448
 50
268.90567570146658
 51
312.13544093184879
  0
ARC
  5
2EC
  8
DATA
 62
     7
 10
-698.78051707011025
 20
2704.936225505237
 30
0.0
 40
3242.0637595139692
 50
273.19641134469259
 51
273.64762839709562
  0
ARC
  5
2ED
  8
DATA
 62
     7
 10
-537.77307110496304
 20
-599.84029149782305
 30
0.0
 40
8.7721215229101688
 50
144.08720316198759
 51
223.49701702916909
  0
ARC
  5
2EE
  8
DATA
 62
     7
 10
-438.9859516814322
 20
-499.46340961180891
 30
0.0
 40
149.60199098116931
 50
225.34241172928211
 51
234.59652679223291
  0
ARC
  5
2EF
  8
DATA
 62
     7
 10
-521.82816248380357
 20
-707.29380359701213
 30
0.0
 40
114.151248289449
 50
110.2198432730822
 51
115.7344868740217
  0
ARC
  5
2F0
  8
DATA
 62
     7
 10
-566.73673117383157
 20
-612.32050935038365
 30
0.0
 40
9.1320844905803078
 50
120.65432565108139
 51
176.1522185289669
  0
ARC
  5
2F1
  8
DATA
 62
     7
 10
-586.1296315336707
 20
-611.40992710588785
 30
0.0
 40
10.28571188454853
 50
288.21471020109323
 51
358.34109254258249
  0
LINE
  5
2F2
  8
DATA
 62
     7
 10
-446.80000000000013
 20
-484.85958380000039
 30
0.0
 11
-446.80000000000013
 21
-443.0567210000001
 31
0.0
  0
LINE
  5
2F3
  8
DATA
 62
     7
 10
-492.52000000000049
 20
-530.55972099999883
 30
0.0
 11
-492.52000000000049
 21
-481.029721
 31
0.0
  0
LINE
  5
2F4
  8
DATA
 62
     7
 10
-526.55600000000049
 20
-532.08372099999985
 30
0.0
 11
-518.0063854000008
 21
-532.08372099999985
 31
0.0
  0
ARC
  5
2F5
  8
DATA
 62
     7
 10
-514.16792441824873
 20
-564.05508194982656
 30
0.0
 40
32.200958117617212
 50
96.846125917371594
 51
140.661207206179
  0
ARC
  5
2F6
  8
DATA
 62
     7
 10
-526.27050691180091
 20
-557.29432271759538
 30
0.0
 40
18.715148119967321
 50
133.16052907392719
 51
219.88233745677121
  0
ARC
  5
2F7
  8
DATA
 62
     7
 10
-556.50869436177982
 20
-580.12345925843385
 30
0.0
 40
19.218137945256519
 50
352.217146712111
 51
34.295730423472079
  0
ARC
  5
2F8
  8
DATA
 62
     7
 10
-586.36482559561091
 20
-560.73159866587605
 30
0.0
 40
53.616154663950041
 50
320.69457336661179
 51
335.7814100509014
  0
LINE
  5
2F9
  8
DATA
 62
     7
 10
-573.03800000000047
 20
-569.29472099999987
 30
0.0
 11
-540.63181640000494
 21
-569.29472099999987
 31
0.0
  0
LINE
  5
2FA
  8
DATA
 62
     7
 10
-590.9052236
 20
-597.24935139999991
 30
0.0
 11
-537.46758516544787
 21
-582.72595549402729
 31
0.0
  0
ARC
  5
2FB
  8
DATA
 62
     7
 10
-565.1765188628782
 20
-591.46889241158215
 30
0.0
 40
9.5398039122519815
 50
294.0976533819836
 51
22.24768501774161
  0
ARC
  5
2FC
  8
DATA
 62
     7
 10
-372.3405084659521
 20
-581.0866290481481
 30
0.0
 40
157.4128115129441
 50
118.32278801542709
 51
140.0230246552303
  0
ARC
  5
2FD
  8
DATA
 62
     7
 10
-648.25949153404827
 20
-430.50281295185198
 30
0.0
 40
157.4128115129441
 50
298.32278801542719
 51
313.00059834611159
  0
ARC
  5
2FE
  8
DATA
 62
     7
 10
-648.25949153404827
 20
-430.50281295185198
 30
0.0
 40
157.41281151294419
 50
316.71076480145013
 51
320.02302465523007
  0
LINE
  5
2FF
  8
DATA
 62
     7
 10
-526.30250000000012
 20
-581.44434960000012
 30
0.0
 11
-526.30250000000012
 21
-549.44434960000012
 31
0.0
  0
LINE
  5
300
  8
DATA
 62
     7
 10
-526.30250000000012
 20
-549.44434960000012
 30
0.0
 11
-494.30249999999972
 21
-549.44434960000012
 31
0.0
  0
LINE
  5
301
  8
DATA
 62
     7
 10
-494.30249999999972
 20
-549.44434960000012
 30
0.0
 11
-494.30249999999972
 21
-581.44434960000012
 31
0.0
  0
LINE
  5
302
  8
DATA
 62
     7
 10
-494.30249999999972
 20
-581.44434960000012
 30
0.0
 11
-526.30250000000012
 21
-581.44434960000012
 31
0.0
  0
LINE
  5
303
  8
DATA
 62
     7
 10
-526.30250000000012
 20
-554.94434960000012
 30
0.0
 11
-494.30249999999972
 21
-554.94434960000012
 31
0.0
  0
TEXT
  5
304
  8
DATA
 62
     7
 10
-524.80250000000012
 20
-553.44434960000012
 30
0.0
 40
3.0078125
  1
CONTROL
 41
0.85
 11
-524.80250000000012
 21
-550.43653710000012
 31
0.0
 73
     3
  0
TEXT
  5
305
  8
DATA
 62
     7
 10
-499.47689172159778
 20
-553.44434960000012
 30
0.0
 40
3.0078125
  1
28
 41
0.85
 11
-499.47689172159778
 21
-550.43653710000012
 31
0.0
 73
     3
  0
LINE
  5
306
  8
DATA
 62
     7
 10
-639.60677720000012
 20
-222.5000000000008
 30
0.0
 11
-639.60677720000012
 21
-218.83024586837419
 31
0.0
  0
ARC
  5
307
  8
DATA
 62
     7
 10
-633.90351816912153
 20
-207.7071691165624
 30
0.0
 40
12.49999999999984
 50
185.30000000000129
 51
267.87458367191152
  0
LINE
  5
308
  8
DATA
 62
     7
 10
-650.0
 20
-169.5168250860481
 30
0.0
 11
-646.35007689642862
 21
-208.86180145964451
 31
0.0
  0
ARC
  5
309
  8
DATA
 62
     7
 10
-566.20185955205125
 20
-21.017008799999982
 30
0.0
 40
20.0
 50
90.0
 51
157.2999999999997
  0
LINE
  5
30A
  8
DATA
 62
     7
 10
-650.0
 20
-169.51682508604651
 30
0.0
 11
-584.65262134117609
 21
-13.298887953513249
 31
0.0
  0
LINE
  5
30B
  8
DATA
 62
     7
 10
-566.20185955205125
 20
-1.017008799999757
 30
0.0
 11
-454.39814044794912
 21
-1.0170088000004389
 31
0.0
  0
LINE
  5
30C
  8
DATA
 62
     7
 10
-380.99322280000013
 20
-793.42675940000004
 30
0.0
 11
-380.99322280000013
 21
-425.0176156
 31
0.0
  0
LINE
  5
30D
  8
DATA
 62
     7
 10
-370.59999999999991
 20
-796.81999999999982
 30
0.0
 11
-370.59999999999991
 21
-421.62434960000002
 31
0.0
  0
LINE
  5
30E
  8
DATA
 62
     7
 10
-87.327279600000139
 20
-422.18088010000008
 30
0.0
 11
-87.327279600000139
 21
-796.26346949999981
 31
0.0
  0
LINE
  5
30F
  8
DATA
 62
     7
 10
-100.0
 20
-793.72346949999985
 30
0.0
 11
-100.0
 21
-424.7208801000001
 31
0.0
  0
LINE
  5
310
  8
DATA
 62
     7
 10
-73.503761399999803
 20
-798.67894600000011
 30
0.0
 11
-73.503761399999803
 21
-419.7653782000001
 31
0.0
  0
LINE
  5
311
  8
DATA
 62
     7
 10
-44.51682508604744
 20
-422.30140787561157
 30
0.0
 11
-44.51682508604744
 21
-796.14291632438903
 31
0.0
  0
ARC
  5
312
  8
DATA
 62
     7
 10
-431.49825260000028
 20
-761.48857079999982
 30
0.0
 40
6.8764403999998116
 50
285.20470599999942
 51
344.79529400000092
  0
ARC
  5
313
  8
DATA
 62
     7
 10
-384.16822280000002
 20
-793.42675940000004
 30
0.0
 40
3.1749999999999541
 50
270.0
 51
0.0
  0
LINE
  5
314
  8
DATA
 62
     7
 10
-386.01625060000009
 20
-787.3393699999998
 30
0.0
 11
-386.01625060000009
 21
-779.97336999999982
 31
0.0
  0
ARC
  5
315
  8
DATA
 62
     7
 10
-394.1442506000003
 20
-789.62536999999986
 30
0.0
 40
1.523999999999887
 50
90.0
 51
180.0
  0
ARC
  5
316
  8
DATA
 62
     7
 10
-386.77825060000032
 20
-787.3393699999998
 30
0.0
 40
0.7619999999999437
 50
270.0
 51
0.0
  0
LINE
  5
317
  8
DATA
 62
     7
 10
-382.00922280000032
 20
-791.14936999999975
 30
0.0
 11
-382.00922280000032
 21
-787.97436999999968
 31
0.0
  0
LINE
  5
318
  8
DATA
 62
     7
 10
-385.1842228000005
 20
-791.14936999999975
 30
0.0
 11
-382.00922280000032
 21
-791.14936999999975
 31
0.0
  0
LINE
  5
319
  8
DATA
 62
     7
 10
-395.66825060000008
 20
-791.14936999999975
 30
0.0
 11
-385.1842228000005
 21
-791.14936999999975
 31
0.0
  0
LINE
  5
31A
  8
DATA
 62
     7
 10
-395.66825060000008
 20
-791.14936999999975
 30
0.0
 11
-395.66825060000008
 21
-789.62536999999986
 31
0.0
  0
LINE
  5
31B
  8
DATA
 62
     7
 10
-394.1442506000003
 20
-788.10136999999975
 30
0.0
 11
-386.77825060000032
 21
-788.10136999999975
 31
0.0
  0
CIRCLE
  5
31C
  8
DATA
 62
     7
 10
-395.69994980000052
 20
-760.14153260000001
 30
0.0
 40
5.999988000000485
  0
ARC
  5
31D
  8
DATA
 62
     7
 10
-384.4922506000002
 20
-779.97336999999982
 30
0.0
 40
1.523999999999887
 50
90.0
 51
180.0
  0
LINE
  5
31E
  8
DATA
 62
     7
 10
-384.4922506000002
 20
-778.44937000000004
 30
0.0
 11
-382.96825059999992
 21
-778.44937000000004
 31
0.0
  0
LINE
  5
31F
  8
DATA
 62
     7
 10
-399.1289498000001
 20
-760.14153260000001
 30
0.0
 11
-392.27094980000032
 21
-760.14153260000001
 31
0.0
  0
LINE
  5
320
  8
DATA
 62
     7
 10
-395.69994980000001
 20
-763.57053260000009
 30
0.0
 11
-395.69994980000001
 21
-756.71253260000015
 31
0.0
  0
ARC
  5
321
  8
DATA
 62
     7
 10
-403.23103540301548
 20
-686.33179010600327
 30
0.0
 40
28.585404946098251
 50
229.6955198939844
 51
269.91393144691222
  0
LINE
  5
322
  8
DATA
 62
     7
 10
-424.86250260000003
 20
-763.29204700000014
 30
0.0
 11
-411.39176500000019
 21
-713.72755380000012
 31
0.0
  0
LINE
  5
323
  8
DATA
 62
     7
 10
-382.96825059999992
 20
-778.44937000000004
 30
0.0
 11
-382.96825059999992
 21
-706.40900080012193
 31
0.0
  0
ARC
  5
324
  8
DATA
 62
     7
 10
-407.29006306699603
 20
-676.84722328962073
 30
0.0
 40
38.281186649059073
 50
276.02199330509723
 51
313.3882903520099
  0
LINE
  5
325
  8
DATA
 62
     7
 10
-382.00922280000032
 20
-787.97436999999968
 30
0.0
 11
-382.00922280000032
 21
-705.59315111696242
 31
0.0
  0
ARC
  5
326
  8
DATA
 62
     7
 10
-373.77999999999969
 20
-796.81999999999982
 30
0.0
 40
3.1800000000000641
 50
270.0
 51
0.0
  0
ARC
  5
327
  8
DATA
 62
     7
 10
-97.460000000000505
 20
-793.72346949999985
 30
0.0
 40
2.5399999999999641
 50
180.0
 51
270.0
  0
LINE
  5
328
  8
DATA
 62
     7
 10
-87.327279600000139
 20
-796.26346949999981
 30
0.0
 11
-97.460000000000505
 21
-796.26346949999981
 31
0.0
  0
ARC
  5
329
  8
DATA
 62
     7
 10
-88.742008800000349
 20
-796.82500000000005
 30
0.0
 40
3.1749999999997272
 50
180.0
 51
275.00000000000392
  0
LINE
  5
32A
  8
DATA
 62
     7
 10
-91.917008800000076
 20
-796.82500000000005
 30
0.0
 11
-91.917008800000076
 21
-796.26346949999981
 31
0.0
  0
ARC
  5
32B
  8
DATA
 62
     7
 10
-384.16822280000002
 20
-425.0176156
 30
0.0
 40
3.1749999999997272
 50
0.0
 51
90.0
  0
ARC
  5
32C
  8
DATA
 62
     7
 10
-386.77825060000032
 20
-431.76753860000008
 30
0.0
 40
0.7620000000001709
 50
0.0
 51
90.0
  0
ARC
  5
32D
  8
DATA
 62
     7
 10
-394.1442506000003
 20
-429.48153860000019
 30
0.0
 40
1.523999999999887
 50
180.0
 51
270.0
  0
ARC
  5
32E
  8
DATA
 62
     7
 10
-384.4922506000002
 20
-439.13353860000001
 30
0.0
 40
1.523999999999887
 50
180.0
 51
270.0
  0
LINE
  5
32F
  8
DATA
 62
     7
 10
-395.66825060000008
 20
-427.95753860000008
 30
0.0
 11
-395.66825060000008
 21
-429.48153860000019
 31
0.0
  0
LINE
  5
330
  8
DATA
 62
     7
 10
-394.1442506000003
 20
-431.00553860000008
 30
0.0
 11
-386.77825060000032
 21
-431.00553860000008
 31
0.0
  0
LINE
  5
331
  8
DATA
 62
     7
 10
-386.01625060000009
 20
-431.76753860000008
 30
0.0
 11
-386.01625060000009
 21
-439.13353860000001
 31
0.0
  0
LINE
  5
332
  8
DATA
 62
     7
 10
-384.4922506000002
 20
-440.65753860000012
 30
0.0
 11
-382.96825059999992
 21
-440.65753860000012
 31
0.0
  0
CIRCLE
  5
333
  8
DATA
 62
     7
 10
-395.69994980000052
 20
-458.81018200000022
 30
0.0
 40
5.999988000000485
  0
LINE
  5
334
  8
DATA
 62
     7
 10
-399.1289498000001
 20
-458.81018200000022
 30
0.0
 11
-392.27094980000032
 21
-458.81018200000022
 31
0.0
  0
LINE
  5
335
  8
DATA
 62
     7
 10
-395.69994980000001
 20
-462.2391820000002
 30
0.0
 11
-395.69994980000001
 21
-455.38118200000031
 31
0.0
  0
LINE
  5
336
  8
DATA
 62
     7
 10
-382.00922280000032
 20
-487.88322776926179
 30
0.0
 11
-382.00922280000032
 21
-427.95753860000008
 31
0.0
  0
LINE
  5
337
  8
DATA
 62
     7
 10
-382.96825059999992
 20
-487.03797181656842
 30
0.0
 11
-382.96825059999992
 21
-440.65753860000012
 31
0.0
  0
ARC
  5
338
  8
DATA
 62
     7
 10
-373.77999999999969
 20
-421.62434960000002
 30
0.0
 40
3.1799999999998358
 50
0.0
 51
90.0
  0
LINE
  5
339
  8
DATA
 62
     7
 10
-380.99322279999973
 20
-222.5000000000002
 30
0.0
 11
-380.99322279999973
 21
-218.83024586837419
 31
0.0
  0
ARC
  5
33A
  8
DATA
 62
     7
 10
-386.69648183087838
 20
-207.7071691165622
 30
0.0
 40
12.49999999999994
 50
272.12541632808222
 51
354.69999999999862
  0
LINE
  5
33B
  8
DATA
 62
     7
 10
-374.24992310357118
 20
-208.86180145964431
 30
0.0
 11
-370.59999999999991
 21
-169.5168250860481
 31
0.0
  0
LINE
  5
33C
  8
DATA
 62
     7
 10
-435.94737865882422
 20
-13.29888795351394
 30
0.0
 11
-370.59999999999991
 21
-169.5168250860481
 31
0.0
  0
ARC
  5
33D
  8
DATA
 62
     7
 10
-97.460000000000505
 20
-424.7208801000001
 30
0.0
 40
2.5399999999999641
 50
90.0
 51
180.0
  0
LINE
  5
33E
  8
DATA
 62
     7
 10
-97.460000000000505
 20
-422.18088010000008
 30
0.0
 11
-87.327279600000139
 21
-422.18088010000008
 31
0.0
  0
ARC
  5
33F
  8
DATA
 62
     7
 10
-88.742008800000349
 20
-421.61934960000002
 30
0.0
 40
3.1750000000001131
 50
84.999999999996064
 51
180.0
  0
LINE
  5
340
  8
DATA
 62
     7
 10
-91.917008800000076
 20
-421.61934960000002
 30
0.0
 11
-91.917008800000076
 21
-422.18088010000008
 31
0.0
  0
LINE
  5
341
  8
DATA
 62
     7
 10
-630.49999999999989
 20
463.19969418674242
 30
0.0
 11
-630.49999999999989
 21
498.00000000000023
 31
0.0
  0
LINE
  5
342
  8
DATA
 62
     7
 10
-619.5
 20
463.19969418674242
 30
0.0
 11
-619.5
 21
498.00000000000023
 31
0.0
  0
LINE
  5
343
  8
DATA
 62
     7
 10
-536.80030581325764
 20
344.49999999999972
 30
0.0
 11
-502.0
 21
344.49999999999972
 31
0.0
  0
LINE
  5
344
  8
DATA
 62
     7
 10
-502.0
 20
355.49999999999972
 30
0.0
 11
-536.80030581325809
 21
355.49999999999972
 31
0.0
  0
LINE
  5
345
  8
DATA
 62
     7
 10
-591.0
 20
308.0
 30
0.0
 11
-591.0
 21
391.99999999999972
 31
0.0
  0
LINE
  5
346
  8
DATA
 62
     7
 10
-590.0
 20
308.0
 30
0.0
 11
-590.0
 21
392.00000000000011
 31
0.0
  0
LINE
  5
347
  8
DATA
 62
     7
 10
-660.0
 20
308.0
 30
0.0
 11
-660.0
 21
391.99999999999972
 31
0.0
  0
LINE
  5
348
  8
DATA
 62
     7
 10
-659.0
 20
308.0
 30
0.0
 11
-659.0
 21
391.99999999999972
 31
0.0
  0
LINE
  5
349
  8
DATA
 62
     7
 10
-591.0
 20
359.87956810631221
 30
0.0
 11
-600.0
 21
359.87956810631221
 31
0.0
  0
LINE
  5
34A
  8
DATA
 62
     7
 10
-591.0
 20
358.74999999999972
 30
0.0
 11
-600.0
 21
358.74999999999972
 31
0.0
  0
LINE
  5
34B
  8
DATA
 62
     7
 10
-591.0
 20
341.24999999999972
 30
0.0
 11
-600.0
 21
341.24999999999972
 31
0.0
  0
LINE
  5
34C
  8
DATA
 62
     7
 10
-600.0
 20
340.12043189368768
 30
0.0
 11
-591.0
 21
340.12043189368768
 31
0.0
  0
ARC
  5
34D
  8
DATA
 62
     7
 10
-600.0
 20
350.0
 30
0.0
 40
9.8795681063122878
 50
210.63293386126011
 51
270.0
  0
ARC
  5
34E
  8
DATA
 62
     7
 10
-600.0
 20
350.0
 30
0.0
 40
9.8795681063122647
 50
90.0
 51
149.3670661387398
  0
ARC
  5
34F
  8
DATA
 62
     7
 10
-600.0
 20
350.0
 30
0.0
 40
8.7499999999999822
 50
202.56742262803559
 51
270.0
  0
ARC
  5
350
  8
DATA
 62
     7
 10
-600.0
 20
350.0
 30
0.0
 40
8.75
 50
90.0
 51
157.4325773719643
  0
CIRCLE
  5
351
  8
DATA
 62
     7
 10
-600.0
 20
350.0
 30
0.0
 40
3.5
  0
ARC
  5
352
  8
DATA
 62
     7
 10
-594.0
 20
308.0
 30
0.0
 40
3.0
 50
270.0
 51
0.0
  0
ARC
  5
353
  8
DATA
 62
     7
 10
-593.0
 20
308.0
 30
0.0
 40
3.0
 50
270.0
 51
0.0
  0
LINE
  5
354
  8
DATA
 62
     7
 10
-615.12043189368751
 20
315.5
 30
0.0
 11
-615.12043189368751
 21
305.00000000000023
 31
0.0
  0
LINE
  5
355
  8
DATA
 62
     7
 10
-616.25
 20
315.5
 30
0.0
 11
-616.25
 21
305.0
 31
0.0
  0
ARC
  5
356
  8
DATA
 62
     7
 10
-650.0
 20
350.0
 30
0.0
 40
9.8795681063121723
 50
30.63293386125898
 51
90.0
  0
ARC
  5
357
  8
DATA
 62
     7
 10
-650.0
 20
350.0
 30
0.0
 40
9.8795681063122647
 50
270.0
 51
329.367066138741
  0
ARC
  5
358
  8
DATA
 62
     7
 10
-650.0
 20
350.0
 30
0.0
 40
8.7499999999998082
 50
22.567422628032901
 51
90.0
  0
ARC
  5
359
  8
DATA
 62
     7
 10
-650.0
 20
350.0
 30
0.0
 40
8.75
 50
270.0
 51
337.432577371967
  0
LINE
  5
35A
  8
DATA
 62
     7
 10
-650.0
 20
359.87956810631221
 30
0.0
 11
-659.0
 21
359.87956810631221
 31
0.0
  0
LINE
  5
35B
  8
DATA
 62
     7
 10
-650.0
 20
358.74999999999972
 30
0.0
 11
-659.0
 21
358.74999999999972
 31
0.0
  0
LINE
  5
35C
  8
DATA
 62
     7
 10
-650.0
 20
341.24999999999972
 30
0.0
 11
-659.0
 21
341.24999999999972
 31
0.0
  0
LINE
  5
35D
  8
DATA
 62
     7
 10
-650.0
 20
340.12043189368768
 30
0.0
 11
-659.0
 21
340.12043189368768
 31
0.0
  0
CIRCLE
  5
35E
  8
DATA
 62
     7
 10
-650.0
 20
350.0
 30
0.0
 40
3.5
  0
ARC
  5
35F
  8
DATA
 62
     7
 10
-657.0
 20
308.0
 30
0.0
 40
3.0
 50
180.0
 51
270.0
  0
ARC
  5
360
  8
DATA
 62
     7
 10
-656.0
 20
308.0
 30
0.0
 40
3.0
 50
180.0
 51
270.0
  0
LINE
  5
361
  8
DATA
 62
     7
 10
-633.75
 20
315.5
 30
0.0
 11
-633.75
 21
305.0
 31
0.0
  0
LINE
  5
362
  8
DATA
 62
     7
 10
-634.87956810631204
 20
315.5
 30
0.0
 11
-634.87956810631204
 21
305.0
 31
0.0
  0
CIRCLE
  5
363
  8
DATA
 62
     7
 10
-625.0
 20
315.5
 30
0.0
 40
3.5
  0
ARC
  5
364
  8
DATA
 62
     7
 10
-625.0
 20
315.5
 30
0.0
 40
8.75
 50
0.0
 51
180.0
  0
ARC
  5
365
  8
DATA
 62
     7
 10
-625.0
 20
315.5
 30
0.0
 40
9.8795681063124903
 50
0.0
 51
180.0
  0
CIRCLE
  5
366
  8
DATA
 62
     7
 10
-625.0
 20
350.0
 30
0.0
 40
17.25
  0
LINE
  5
367
  8
DATA
 62
     7
 10
-657.0
 20
305.00000000000023
 30
0.0
 11
-593.0
 21
305.0
 31
0.0
  0
CIRCLE
  5
368
  8
DATA
 62
     7
 10
-625.0
 20
446.85000000000042
 30
0.0
 40
17.25
  0
ARC
  5
369
  8
DATA
 62
     7
 10
-594.0
 20
391.99999999999972
 30
0.0
 40
3.0
 50
0.0
 51
90.0
  0
ARC
  5
36A
  8
DATA
 62
     7
 10
-593.0
 20
392.00000000000011
 30
0.0
 40
3.0
 50
0.0
 51
90.0
  0
LINE
  5
36B
  8
DATA
 62
     7
 10
-615.12043189368751
 20
384.50000000000051
 30
0.0
 11
-615.12043189368751
 21
394.99999999999972
 31
0.0
  0
LINE
  5
36C
  8
DATA
 62
     7
 10
-616.25
 20
384.50000000000051
 30
0.0
 11
-616.25
 21
394.99999999999972
 31
0.0
  0
LINE
  5
36D
  8
DATA
 62
     7
 10
-633.75
 20
384.50000000000051
 30
0.0
 11
-633.75
 21
394.99999999999972
 31
0.0
  0
LINE
  5
36E
  8
DATA
 62
     7
 10
-634.87956810631204
 20
384.50000000000051
 30
0.0
 11
-634.87956810631204
 21
394.99999999999972
 31
0.0
  0
ARC
  5
36F
  8
DATA
 62
     7
 10
-657.0
 20
391.99999999999972
 30
0.0
 40
3.0
 50
90.0
 51
180.0
  0
ARC
  5
370
  8
DATA
 62
     7
 10
-656.0
 20
391.99999999999972
 30
0.0
 40
3.0
 50
90.0
 51
180.0
  0
ARC
  5
371
  8
DATA
 62
     7
 10
-625.0
 20
384.50000000000051
 30
0.0
 40
8.75
 50
180.0
 51
0.0
  0
CIRCLE
  5
372
  8
DATA
 62
     7
 10
-625.0
 20
384.49999999999972
 30
0.0
 40
3.5
  0
ARC
  5
373
  8
DATA
 62
     7
 10
-625.0
 20
384.50000000000051
 30
0.0
 40
9.8795681063120355
 50
180.0
 51
0.0
  0
LINE
  5
374
  8
DATA
 62
     7
 10
-657.0
 20
394.99999999999972
 30
0.0
 11
-593.0
 21
394.99999999999972
 31
0.0
  0
ARC
  5
375
  8
DATA
 62
     7
 10
-553.15000000000009
 20
350.0
 30
0.0
 40
17.250000000000071
 50
18.59282254942736
 51
341.40717745057327
  0
LINE
  5
376
  8
DATA
 62
     7
 10
-536.80030581325809
 20
355.49999999999972
 30
0.0
 11
-536.80030581325764
 21
344.49999999999972
 31
0.0
  0
LINE
  5
377
  8
DATA
 62
     7
 10
-493.0
 20
359.5
 30
0.0
 11
-490.5
 21
359.5
 31
0.0
  0
LINE
  5
378
  8
DATA
 62
     7
 10
-493.0
 20
345.0
 30
0.0
 11
-490.5
 21
345.0
 31
0.0
  0
LINE
  5
379
  8
DATA
 62
     7
 10
-493.0
 20
340.5000000000004
 30
0.0
 11
-490.5
 21
340.5000000000004
 31
0.0
  0
LINE
  5
37A
  8
DATA
 62
     7
 10
-502.0
 20
350.0
 30
0.0
 11
-493.0
 21
350.0
 31
0.0
  0
LINE
  5
37B
  8
DATA
 62
     7
 10
-502.0
 20
358.44374768689829
 30
0.0
 11
-493.0
 21
358.44374768689829
 31
0.0
  0
LINE
  5
37C
  8
DATA
 62
     7
 10
-502.0
 20
341.55625231310199
 30
0.0
 11
-493.0
 21
341.55625231310199
 31
0.0
  0
LINE
  5
37D
  8
DATA
 62
     7
 10
-502.0
 20
358.44374768689829
 30
0.0
 11
-502.0
 21
341.55625231310199
 31
0.0
  0
LINE
  5
37E
  8
DATA
 62
     7
 10
-493.0
 20
359.5
 30
0.0
 11
-493.0
 21
340.5000000000004
 31
0.0
  0
LINE
  5
37F
  8
DATA
 62
     7
 10
-475.0
 20
394.99999999999972
 30
0.0
 11
-475.0
 21
305.0
 31
0.0
  0
LINE
  5
380
  8
DATA
 62
     7
 10
-480.49999999999989
 20
394.99999999999972
 30
0.0
 11
-480.49999999999989
 21
305.0
 31
0.0
  0
LINE
  5
381
  8
DATA
 62
     7
 10
-488.49999999999989
 20
394.99999999999972
 30
0.0
 11
-488.49999999999989
 21
360.50000000000011
 31
0.0
  0
LINE
  5
382
  8
DATA
 62
     7
 10
-488.49999999999989
 20
339.50000000000028
 30
0.0
 11
-488.49999999999989
 21
305.0
 31
0.0
  0
LINE
  5
383
  8
DATA
 62
     7
 10
-488.49999999999989
 20
305.0
 30
0.0
 11
-475.0
 21
305.0
 31
0.0
  0
LINE
  5
384
  8
DATA
 62
     7
 10
-488.36712570717128
 20
358.99999999999972
 30
0.0
 11
-480.49999999999989
 21
358.99999999999972
 31
0.0
  0
LINE
  5
385
  8
DATA
 62
     7
 10
-488.367125707171
 20
340.99999999999972
 30
0.0
 11
-480.49999999999989
 21
340.99999999999972
 31
0.0
  0
LINE
  5
386
  8
DATA
 62
     7
 10
-488.49999999999989
 20
360.50000000000011
 30
0.0
 11
-490.5
 21
360.50000000000011
 31
0.0
  0
LINE
  5
387
  8
DATA
 62
     7
 10
-490.5
 20
339.50000000000028
 30
0.0
 11
-488.49999999999989
 21
339.50000000000028
 31
0.0
  0
LINE
  5
388
  8
DATA
 62
     7
 10
-490.5
 20
360.49999999999972
 30
0.0
 11
-490.5
 21
339.50000000000028
 31
0.0
  0
ARC
  5
389
  8
DATA
 62
     7
 10
-598.50000000002126
 20
349.9999999999992
 30
0.0
 40
110.5000000000212
 50
354.54737801218869
 51
5.4526219878118241
  0
LINE
  5
38A
  8
DATA
 62
     7
 10
-488.49999999999989
 20
394.99999999999972
 30
0.0
 11
-475.0
 21
394.99999999999972
 31
0.0
  0
LINE
  5
38B
  8
DATA
 62
     7
 10
-660.0
 20
525.0
 30
0.0
 11
-590.0
 21
525.0
 31
0.0
  0
LINE
  5
38C
  8
DATA
 62
     7
 10
-633.75
 20
519.00000000000011
 30
0.0
 11
-616.25
 21
519.00000000000011
 31
0.0
  0
ARC
  5
38D
  8
DATA
 62
     7
 10
-654.53826909813688
 20
522.91132975849996
 30
0.0
 40
4.9999999999996723
 50
190.30484646876741
 51
245.50762136313531
  0
LINE
  5
38E
  8
DATA
 62
     7
 10
-660.0
 20
525.0
 30
0.0
 11
-659.45761864863596
 21
522.01690256749976
 31
0.0
  0
ARC
  5
38F
  8
DATA
 62
     7
 10
-595.46173090186301
 20
522.91132975849916
 30
0.0
 40
4.999999999999905
 50
294.49237863686449
 51
349.69515353123251
  0
LINE
  5
390
  8
DATA
 62
     7
 10
-590.54238135136336
 20
522.0169025674993
 30
0.0
 11
-590.0
 21
525.0
 31
0.0
  0
LINE
  5
391
  8
DATA
 62
     7
 10
-634.75000000000045
 20
498.00000000000023
 30
0.0
 11
-615.24999999999989
 21
498.00000000000023
 31
0.0
  0
LINE
  5
392
  8
DATA
 62
     7
 10
-635.5
 20
509.50000000000011
 30
0.0
 11
-614.5
 21
509.50000000000011
 31
0.0
  0
LINE
  5
393
  8
DATA
 62
     7
 10
-634.75000000000045
 20
507.00000000000051
 30
0.0
 11
-615.24999999999989
 21
507.00000000000051
 31
0.0
  0
LINE
  5
394
  8
DATA
 62
     7
 10
-635.5
 20
512.22641096981715
 30
0.0
 11
-635.5
 21
509.50000000000011
 31
0.0
  0
LINE
  5
395
  8
DATA
 62
     7
 10
-634.75000000000045
 20
498.00000000000023
 30
0.0
 11
-634.75000000000045
 21
507.00000000000051
 31
0.0
  0
LINE
  5
396
  8
DATA
 62
     7
 10
-634.49999999999989
 20
507.00000000000051
 30
0.0
 11
-634.49999999999989
 21
509.50000000000011
 31
0.0
  0
LINE
  5
397
  8
DATA
 62
     7
 10
-629.875
 20
498.00000000000023
 30
0.0
 11
-629.875
 21
507.00000000000051
 31
0.0
  0
LINE
  5
398
  8
DATA
 62
     7
 10
-620.12499999999989
 20
498.00000000000023
 30
0.0
 11
-620.12499999999989
 21
507.00000000000051
 31
0.0
  0
LINE
  5
399
  8
DATA
 62
     7
 10
-615.5
 20
507.00000000000051
 30
0.0
 11
-615.5
 21
509.50000000000011
 31
0.0
  0
LINE
  5
39A
  8
DATA
 62
     7
 10
-614.5
 20
509.50000000000011
 30
0.0
 11
-614.5
 21
512.22641096981715
 31
0.0
  0
LINE
  5
39B
  8
DATA
 62
     7
 10
-615.24999999999989
 20
498.0
 30
0.0
 11
-615.24999999999989
 21
507.00000000000051
 31
0.0
  0
ARC
  5
39C
  8
DATA
 62
     7
 10
-625.0
 20
587.75000000000114
 30
0.0
 40
76.250000000000838
 50
245.50762136313239
 51
294.49237863686687
  0
LINE
  5
39D
  8
DATA
 62
     7
 10
-633.75
 20
512.00371296228491
 30
0.0
 11
-633.75
 21
519.00000000000011
 31
0.0
  0
LINE
  5
39E
  8
DATA
 62
     7
 10
-616.25
 20
512.00371296228491
 30
0.0
 11
-616.25
 21
519.00000000000011
 31
0.0
  0
LINE
  5
39F
  8
DATA
 62
     7
 10
-390.0
 20
392.00000000000011
 30
0.0
 11
-390.0
 21
308.0
 31
0.0
  0
LINE
  5
3A0
  8
DATA
 62
     7
 10
-392.5
 20
389.75695975450202
 30
0.0
 11
-392.5
 21
310.24304024549758
 31
0.0
  0
LINE
  5
3A1
  8
DATA
 62
     7
 10
-456.46615312498568
 20
392.50000000000051
 30
0.0
 11
-431.49392195633561
 21
360.38708224791822
 31
0.0
  0
LINE
  5
3A2
  8
DATA
 62
     7
 10
-457.5
 20
389.75695975450202
 30
0.0
 11
-433.4674359954177
 21
358.8524023667876
 31
0.0
  0
LINE
  5
3A3
  8
DATA
 62
     7
 10
-460.0
 20
392.00000000000011
 30
0.0
 11
-460.0
 21
308.0
 31
0.0
  0
LINE
  5
3A4
  8
DATA
 62
     7
 10
-457.5
 20
389.75695975450202
 30
0.0
 11
-457.5
 21
310.24304024549758
 31
0.0
  0
LINE
  5
3A5
  8
DATA
 62
     7
 10
-393.5338468750146
 20
392.50000000000051
 30
0.0
 11
-418.50607804366422
 21
360.38708224791822
 31
0.0
  0
LINE
  5
3A6
  8
DATA
 62
     7
 10
-392.5
 20
389.75695975450202
 30
0.0
 11
-416.53256400458258
 21
358.8524023667876
 31
0.0
  0
LINE
  5
3A7
  8
DATA
 62
     7
 10
-412.75
 20
315.5
 30
0.0
 11
-412.75
 21
307.5
 31
0.0
  0
ARC
  5
3A8
  8
DATA
 62
     7
 10
-397.80487804878021
 20
350.00000000000068
 30
0.0
 40
12.44512195122053
 50
100.1592157200317
 51
259.84078427997031
  0
CIRCLE
  5
3A9
  8
DATA
 62
     7
 10
-400.0
 20
350.0
 30
0.0
 40
3.5999999999999082
  0
ARC
  5
3AA
  8
DATA
 62
     7
 10
-425.0
 20
350.0
 30
0.0
 40
15.00000000000014
 50
7.0452700079039801
 51
47.349808152801593
  0
LINE
  5
3AB
  8
DATA
 62
     7
 10
-400.0
 20
362.25
 30
0.0
 11
-392.5
 21
362.25
 31
0.0
  0
ARC
  5
3AC
  8
DATA
 62
     7
 10
-425.0
 20
350.0
 30
0.0
 40
14.999999999999741
 50
312.6501918471983
 51
352.95472999210023
  0
LINE
  5
3AD
  8
DATA
 62
     7
 10
-400.0
 20
337.74999999999989
 30
0.0
 11
-392.5
 21
337.74999999999989
 31
0.0
  0
LINE
  5
3AE
  8
DATA
 62
     7
 10
-431.49392195633561
 20
339.61291775208161
 30
0.0
 11
-456.46615312498568
 21
307.4999999999992
 31
0.0
  0
LINE
  5
3AF
  8
DATA
 62
     7
 10
-433.4674359954177
 20
341.14759763321229
 30
0.0
 11
-457.5
 21
310.24304024549758
 31
0.0
  0
LINE
  5
3B0
  8
DATA
 62
     7
 10
-437.25
 20
315.5
 30
0.0
 11
-437.2500000000004
 21
307.5
 31
0.0
  0
ARC
  5
3B1
  8
DATA
 62
     7
 10
-457.00000000000051
 20
308.0
 30
0.0
 40
3.0
 50
180.0
 51
270.0
  0
CIRCLE
  5
3B2
  8
DATA
 62
     7
 10
-450.00000000000051
 20
350.0
 30
0.0
 40
3.5999999999999082
  0
LINE
  5
3B3
  8
DATA
 62
     7
 10
-457.5
 20
362.25
 30
0.0
 11
-450.00000000000051
 21
362.25
 31
0.0
  0
LINE
  5
3B4
  8
DATA
 62
     7
 10
-457.5
 20
337.74999999999989
 30
0.0
 11
-450.00000000000051
 21
337.74999999999989
 31
0.0
  0
ARC
  5
3B5
  8
DATA
 62
     7
 10
-452.19512195122007
 20
350.00000000000068
 30
0.0
 40
12.44512195122045
 50
280.15921572002958
 51
79.840784279968261
  0
ARC
  5
3B6
  8
DATA
 62
     7
 10
-425.0
 20
350.0
 30
0.0
 40
15.00000000000005
 50
132.65019184719969
 51
172.95472999209599
  0
ARC
  5
3B7
  8
DATA
 62
     7
 10
-425.0
 20
350.0
 30
0.0
 40
15.0
 50
187.0452700078996
 51
227.34980815280039
  0
CIRCLE
  5
3B8
  8
DATA
 62
     7
 10
-425.0
 20
315.5
 30
0.0
 40
3.5999999999999082
  0
ARC
  5
3B9
  8
DATA
 62
     7
 10
-425.0
 20
350.0
 30
0.0
 40
15.0
 50
56.91019184719832
 51
123.08980815280169
  0
CIRCLE
  5
3BA
  8
DATA
 62
     7
 10
-425.0
 20
350.0
 30
0.0
 40
4.75
  0
LINE
  5
3BB
  8
DATA
 62
     7
 10
-425.0
 20
358.99999999999972
 30
0.0
 11
-432.79422863406029
 21
354.49999999999989
 31
0.0
  0
LINE
  5
3BC
  8
DATA
 62
     7
 10
-432.79422863406029
 20
345.50000000000023
 30
0.0
 11
-425.0
 21
340.99999999999972
 31
0.0
  0
ARC
  5
3BD
  8
DATA
 62
     7
 10
-425.0
 20
350.0
 30
0.0
 40
15.000000000000179
 50
236.9101918471988
 51
303.08980815279961
  0
LINE
  5
3BE
  8
DATA
 62
     7
 10
-432.79422863406029
 20
354.49999999999989
 30
0.0
 11
-432.79422863406029
 21
345.50000000000023
 31
0.0
  0
LINE
  5
3BF
  8
DATA
 62
     7
 10
-417.20577136594011
 20
345.50000000000023
 30
0.0
 11
-417.20577136594011
 21
354.49999999999989
 31
0.0
  0
LINE
  5
3C0
  8
DATA
 62
     7
 10
-417.20577136594011
 20
354.49999999999989
 30
0.0
 11
-425.0
 21
358.99999999999972
 31
0.0
  0
LINE
  5
3C1
  8
DATA
 62
     7
 10
-425.0
 20
340.99999999999972
 30
0.0
 11
-417.20577136594011
 21
345.50000000000023
 31
0.0
  0
ARC
  5
3C2
  8
DATA
 62
     7
 10
-424.99999999999909
 20
313.3048780487801
 30
0.0
 40
12.44512195122053
 50
10.159215720031719
 51
169.84078427997039
  0
LINE
  5
3C3
  8
DATA
 62
     7
 10
-457.00000000000051
 20
305.0
 30
0.0
 11
-393.0
 21
305.0
 31
0.0
  0
LINE
  5
3C4
  8
DATA
 62
     7
 10
-456.46615312498528
 20
307.5
 30
0.0
 11
-393.53384687501512
 21
307.5
 31
0.0
  0
CIRCLE
  5
3C5
  8
DATA
 62
     7
 10
-425.0
 20
350.0
 30
0.0
 40
12.25
  0
LINE
  5
3C6
  8
DATA
 62
     7
 10
-418.50607804366422
 20
339.61291775208161
 30
0.0
 11
-393.53384687501512
 21
307.4999999999992
 31
0.0
  0
LINE
  5
3C7
  8
DATA
 62
     7
 10
-416.53256400458258
 20
341.14759763321229
 30
0.0
 11
-392.5
 21
310.24304024549758
 31
0.0
  0
ARC
  5
3C8
  8
DATA
 62
     7
 10
-393.0
 20
308.0
 30
0.0
 40
3.0
 50
270.0
 51
0.0
  0
LINE
  5
3C9
  8
DATA
 62
     7
 10
-412.75
 20
392.50000000000051
 30
0.0
 11
-412.75
 21
384.49999999999972
 31
0.0
  0
ARC
  5
3CA
  8
DATA
 62
     7
 10
-457.00000000000051
 20
392.00000000000011
 30
0.0
 40
3.0
 50
90.0
 51
180.0
  0
LINE
  5
3CB
  8
DATA
 62
     7
 10
-437.2500000000004
 20
392.50000000000051
 30
0.0
 11
-437.25
 21
384.49999999999972
 31
0.0
  0
CIRCLE
  5
3CC
  8
DATA
 62
     7
 10
-425.0
 20
384.49999999999972
 30
0.0
 40
3.5999999999999082
  0
LINE
  5
3CD
  8
DATA
 62
     7
 10
-393.0
 20
395.00000000000011
 30
0.0
 11
-457.00000000000051
 21
394.99999999999972
 31
0.0
  0
LINE
  5
3CE
  8
DATA
 62
     7
 10
-456.46615312498528
 20
392.49999999999972
 30
0.0
 11
-393.53384687501512
 21
392.49999999999972
 31
0.0
  0
ARC
  5
3CF
  8
DATA
 62
     7
 10
-424.99999999999909
 20
386.69512195122002
 30
0.0
 40
12.44512195122045
 50
190.15921572002961
 51
349.84078427996832
  0
ARC
  5
3D0
  8
DATA
 62
     7
 10
-393.0
 20
392.00000000000011
 30
0.0
 40
3.0
 50
0.0
 51
90.0
  0
LINE
  5
3D1
  8
DATA
 62
     7
 10
575.0
 20
-424.99999999999977
 30
0.0
 11
925.0
 21
-424.99999999999977
 31
0.0
  0
TEXT
  5
3D2
  8
DATA
 62
     7
 10
595.27463807136257
 20
-412.49999999999977
 30
0.0
 40
24.921875
  1
コネクターパネル拡大図
 41
0.85
 11
595.27463807136257
 21
-387.57812499999972
 31
0.0
 73
     3
  0
LINE
  5
3D3
  8
DATA
 62
     7
 10
123.9829912
 20
-439.95717249703262
 30
0.0
 11
123.9829911999995
 21
-778.48715170297078
 31
0.0
  0
LINE
  5
3D4
  8
DATA
 62
     7
 10
250.0
 20
-796.82499999999982
 30
0.0
 11
250.0
 21
-421.61934960000031
 31
0.0
  0
LINE
  5
3D5
  8
DATA
 62
     7
 10
529.39999999999975
 20
-796.81999999999982
 30
0.0
 11
529.39999999999975
 21
-421.62434960000002
 31
0.0
  0
LINE
  5
3D6
  8
DATA
 62
     7
 10
320.48249999999922
 20
-437.04323949963077
 30
0.0
 11
320.48249999999962
 21
-781.40108470037262
 31
0.0
  0
LINE
  5
3D7
  8
DATA
 62
     7
 10
458.91249999999991
 20
-781.40108470037262
 30
0.0
 11
458.91249999999991
 21
-437.04323949963077
 31
0.0
  0
LINE
  5
3D8
  8
DATA
 62
     7
 10
348.19749999999971
 20
-660.40108470037262
 30
0.0
 11
348.19749999999971
 21
-557.40108470037262
 31
0.0
  0
LINE
  5
3D9
  8
DATA
 62
     7
 10
431.19749999999971
 20
-660.40108470037262
 30
0.0
 11
431.19749999999971
 21
-557.40108470037262
 31
0.0
  0
CIRCLE
  5
3DA
  8
DATA
 62
     7
 10
389.69749999999971
 20
-608.90108470037262
 30
0.0
 40
20.5
  0
CIRCLE
  5
3DB
  8
DATA
 62
     7
 10
389.69749999999971
 20
-608.90108470037262
 30
0.0
 40
18.0
  0
LINE
  5
3DC
  8
DATA
 62
     7
 10
253.17499999999919
 20
-800.0
 30
0.0
 11
526.2199999999998
 21
-800.00000000000011
 31
0.0
  0
LINE
  5
3DD
  8
DATA
 62
     7
 10
320.48249999999962
 20
-781.40108470037262
 30
0.0
 11
458.91249999999991
 21
-781.40108470037262
 31
0.0
  0
ARC
  5
3DE
  8
DATA
 62
     7
 10
120.8029911999997
 20
-778.48715170297078
 30
0.0
 40
3.1800000000000441
 50
275.0000026634354
 51
0.0
  0
ARC
  5
3DF
  8
DATA
 62
     7
 10
253.17499999999919
 20
-796.82499999999982
 30
0.0
 40
3.1749999999997272
 50
180.0
 51
270.0
  0
LINE
  5
3E0
  8
DATA
 62
     7
 10
250.92993596973241
 20
-799.07003863027046
 30
0.0
 11
320.48249999999922
 21
-781.40108470037262
 31
0.0
  0
LINE
  5
3E1
  8
DATA
 62
     7
 10
361.1975000000001
 20
-701.40108470037262
 30
0.0
 11
418.19749999999971
 21
-701.40108470037262
 31
0.0
  0
LINE
  5
3E2
  8
DATA
 62
     7
 10
361.1975000000001
 20
-714.40108470037262
 30
0.0
 11
418.19749999999971
 21
-714.40108470037262
 31
0.0
  0
LINE
  5
3E3
  8
DATA
 62
     7
 10
361.1975000000001
 20
-713.40108470037228
 30
0.0
 11
418.19749999999971
 21
-713.40108470037228
 31
0.0
  0
LINE
  5
3E4
  8
DATA
 62
     7
 10
361.1975000000001
 20
-761.40108470037262
 30
0.0
 11
418.19749999999971
 21
-761.40108470037262
 31
0.0
  0
LINE
  5
3E5
  8
DATA
 62
     7
 10
361.1975000000001
 20
-760.40108470037251
 30
0.0
 11
418.19749999999971
 21
-760.40108470037251
 31
0.0
  0
LINE
  5
3E6
  8
DATA
 62
     7
 10
361.1975000000001
 20
-773.40108470037262
 30
0.0
 11
418.19749999999971
 21
-773.40108470037262
 31
0.0
  0
TEXT
  5
3E7
  8
DATA
 62
     7
 10
364.19749999999971
 20
-770.40108470037251
 30
0.0
 40
6.015625
  1
PROFESSIONAL
 41
0.85
 11
364.19749999999971
 21
-764.38545970037239
 31
0.0
 73
     3
  0
LINE
  5
3E8
  8
DATA
 62
     7
 10
348.19749999999971
 20
-660.40108470037262
 30
0.0
 11
431.19749999999971
 21
-660.40108470037262
 31
0.0
  0
LINE
  5
3E9
  8
DATA
 62
     7
 10
373.44749999999971
 20
-641.40108470037239
 30
0.0
 11
405.9475000000001
 21
-641.40108470037239
 31
0.0
  0
LINE
  5
3EA
  8
DATA
 62
     7
 10
373.44749999999971
 20
-647.90108470037262
 30
0.0
 11
405.9475000000001
 21
-647.90108470037228
 31
0.0
  0
ARC
  5
3EB
  8
DATA
 62
     7
 10
389.69749999999971
 20
-644.65108470037239
 30
0.0
 40
10.000000000000171
 50
18.965574988848211
 51
161.03442501115089
  0
ARC
  5
3EC
  8
DATA
 62
     7
 10
389.69749999999971
 20
-644.65108470037239
 30
0.0
 40
9.9999999999998241
 50
198.96557498885031
 51
341.03442501115171
  0
LINE
  5
3ED
  8
DATA
 62
     7
 10
361.1975000000001
 20
-713.40108470037228
 30
0.0
 11
361.1975000000001
 21
-701.40108470037262
 31
0.0
  0
LINE
  5
3EE
  8
DATA
 62
     7
 10
361.1975000000001
 20
-773.40108470037262
 30
0.0
 11
361.1975000000001
 21
-761.40108470037262
 31
0.0
  0
LINE
  5
3EF
  8
DATA
 62
     7
 10
361.1975000000001
 20
-760.40108470037251
 30
0.0
 11
361.1975000000001
 21
-714.40108470037262
 31
0.0
  0
TEXT
  5
3F0
  8
DATA
 62
     7
 10
364.19749999999971
 20
-710.40108470037262
 30
0.0
 40
6.015625
  1
CONTROL
 41
0.85
 11
364.19749999999971
 21
-704.38545970037262
 31
0.0
 73
     3
  0
LINE
  5
3F1
  8
DATA
 62
     7
 10
373.44749999999971
 20
-647.90108470037262
 30
0.0
 11
373.44749999999971
 21
-641.40108470037239
 31
0.0
  0
LINE
  5
3F2
  8
DATA
 62
     7
 10
418.19749999999971
 20
-713.40108470037228
 30
0.0
 11
418.19749999999971
 21
-701.40108470037262
 31
0.0
  0
LINE
  5
3F3
  8
DATA
 62
     7
 10
418.19749999999971
 20
-773.40108470037262
 30
0.0
 11
418.19749999999971
 21
-761.40108470037262
 31
0.0
  0
LINE
  5
3F4
  8
DATA
 62
     7
 10
418.19749999999971
 20
-760.40108470037251
 30
0.0
 11
418.19749999999971
 21
-714.40108470037262
 31
0.0
  0
TEXT
  5
3F5
  8
DATA
 62
     7
 10
407.27340927104621
 20
-710.40108470037262
 30
0.0
 40
6.015625
  1
28
 41
0.85
 11
407.27340927104621
 21
-704.38545970037262
 31
0.0
 73
     3
  0
LINE
  5
3F6
  8
DATA
 62
     7
 10
405.9475000000001
 20
-647.90108470037262
 30
0.0
 11
405.9475000000001
 21
-641.40108470037239
 31
0.0
  0
ARC
  5
3F7
  8
DATA
 62
     7
 10
526.2199999999998
 20
-796.81999999999982
 30
0.0
 40
3.1800000000000641
 50
270.0
 51
0.0
  0
LINE
  5
3F8
  8
DATA
 62
     7
 10
528.4650640302674
 20
-799.07003863027046
 30
0.0
 11
458.91250000000031
 21
-781.40108470037262
 31
0.0
  0
CIRCLE
  5
3F9
  8
DATA
 62
     7
 10
389.69749999999971
 20
-697.90108470037262
 30
0.0
 40
1.25
  0
LINE
  5
3FA
  8
DATA
 62
     7
 10
253.17499999999919
 20
-418.44434960000001
 30
0.0
 11
526.2199999999998
 21
-418.44434960000001
 31
0.0
  0
LINE
  5
3FB
  8
DATA
 62
     7
 10
320.48249999999962
 20
-437.04323949963089
 30
0.0
 11
458.91249999999991
 21
-437.04323949963077
 31
0.0
  0
ARC
  5
3FC
  8
DATA
 62
     7
 10
120.80299120000009
 20
-439.95717249703262
 30
0.0
 40
3.1799999999998358
 50
0.0
 51
84.999997336564547
  0
ARC
  5
3FD
  8
DATA
 62
     7
 10
253.17499999999919
 20
-421.61934960000031
 30
0.0
 40
3.175000000000181
 50
90.0
 51
180.0
  0
LINE
  5
3FE
  8
DATA
 62
     7
 10
250.92993596973241
 20
-419.37428556973299
 30
0.0
 11
320.48249999999922
 21
-437.04323949963077
 31
0.0
  0
LINE
  5
3FF
  8
DATA
 62
     7
 10
348.19749999999971
 20
-557.40108470037262
 30
0.0
 11
431.19749999999971
 21
-557.40108470037262
 31
0.0
  0
LINE
  5
400
  8
DATA
 62
     7
 10
365.69749999999971
 20
-519.90108470037262
 30
0.0
 11
413.69749999999971
 21
-519.90108470037262
 31
0.0
  0
LINE
  5
401
  8
DATA
 62
     7
 10
365.69749999999971
 20
-518.90108470037262
 30
0.0
 11
413.69749999999971
 21
-518.90108470037262
 31
0.0
  0
LINE
  5
402
  8
DATA
 62
     7
 10
406.94749999999971
 20
-482.15108470037262
 30
0.0
 11
391.44749999999971
 21
-482.15108470037262
 31
0.0
  0
LINE
  5
403
  8
DATA
 62
     7
 10
391.44749999999971
 20
-475.15108470037262
 30
0.0
 11
406.94749999999971
 21
-475.15108470037262
 31
0.0
  0
LINE
  5
404
  8
DATA
 62
     7
 10
393.4475000000001
 20
-493.65108470037251
 30
0.0
 11
404.94749999999971
 21
-493.65108470037251
 31
0.0
  0
LINE
  5
405
  8
DATA
 62
     7
 10
393.4475000000001
 20
-495.65108470037262
 30
0.0
 11
404.94749999999971
 21
-495.65108470037262
 31
0.0
  0
LINE
  5
406
  8
DATA
 62
     7
 10
393.4475000000001
 20
-497.15108470037262
 30
0.0
 11
404.94749999999971
 21
-497.15108470037262
 31
0.0
  0
LINE
  5
407
  8
DATA
 62
     7
 10
370.94749999999971
 20
-482.65108470037279
 30
0.0
 11
408.44749999999971
 21
-482.65108470037279
 31
0.0
  0
LINE
  5
408
  8
DATA
 62
     7
 10
370.94749999999971
 20
-474.65108470037279
 30
0.0
 11
408.44749999999971
 21
-474.65108470037279
 31
0.0
  0
LINE
  5
409
  8
DATA
 62
     7
 10
365.69749999999971
 20
-461.40108470037262
 30
0.0
 11
413.69749999999971
 21
-461.40108470037262
 31
0.0
  0
LINE
  5
40A
  8
DATA
 62
     7
 10
365.69749999999971
 20
-462.40108470037279
 30
0.0
 11
413.69749999999971
 21
-462.40108470037251
 31
0.0
  0
LINE
  5
40B
  8
DATA
 62
     7
 10
370.94749999999971
 20
-500.65108470037262
 30
0.0
 11
408.44749999999971
 21
-500.65108470037262
 31
0.0
  0
LINE
  5
40C
  8
DATA
 62
     7
 10
408.44749999999971
 20
-506.65108470037251
 30
0.0
 11
370.94749999999971
 21
-506.65108470037251
 31
0.0
  0
CIRCLE
  5
40D
  8
DATA
 62
     7
 10
357.94750000000022
 20
-608.90108470037262
 30
0.0
 40
2.5
  0
LINE
  5
40E
  8
DATA
 62
     7
 10
360.69749999999971
 20
-514.90108470037262
 30
0.0
 11
360.69749999999971
 21
-466.40108470037262
 31
0.0
  0
LINE
  5
40F
  8
DATA
 62
     7
 10
361.69749999999971
 20
-514.90108470037262
 30
0.0
 11
361.69749999999971
 21
-466.40108470037279
 31
0.0
  0
LINE
  5
410
  8
DATA
 62
     7
 10
367.69749999999971
 20
-514.65108470037251
 30
0.0
 11
367.69749999999971
 21
-510.65108470037251
 31
0.0
  0
LINE
  5
411
  8
DATA
 62
     7
 10
365.69749999999971
 20
-512.65108470037262
 30
0.0
 11
369.69749999999971
 21
-512.65108470037262
 31
0.0
  0
CIRCLE
  5
412
  8
DATA
 62
     7
 10
367.69749999999971
 20
-512.65108470037262
 30
0.0
 40
2.75
  0
ARC
  5
413
  8
DATA
 62
     7
 10
365.69749999999971
 20
-514.90108470037262
 30
0.0
 40
5.0
 50
180.0
 51
270.0
  0
ARC
  5
414
  8
DATA
 62
     7
 10
365.69749999999971
 20
-514.90108470037262
 30
0.0
 40
4.0
 50
180.0
 51
270.0
  0
LINE
  5
415
  8
DATA
 62
     7
 10
378.44749999999971
 20
-512.65108470037262
 30
0.0
 11
381.94749999999971
 21
-512.65108470037262
 31
0.0
  0
CIRCLE
  5
416
  8
DATA
 62
     7
 10
380.19749999999971
 20
-512.65108470037262
 30
0.0
 40
2.5
  0
LINE
  5
417
  8
DATA
 62
     7
 10
391.44749999999971
 20
-482.15108470037262
 30
0.0
 11
391.44749999999971
 21
-475.15108470037262
 31
0.0
  0
LINE
  5
418
  8
DATA
 62
     7
 10
387.94749999999971
 20
-475.15108470037262
 30
0.0
 11
387.94749999999971
 21
-482.15108470037262
 31
0.0
  0
LINE
  5
419
  8
DATA
 62
     7
 10
382.1974999999992
 20
-476.65108470037262
 30
0.0
 11
382.1974999999992
 21
-480.65108470037262
 31
0.0
  0
TEXT
  5
41A
  8
DATA
 62
     7
 10
381.833632020729
 20
-505.65108470037262
 30
0.0
 40
5.15625
  1
INPUT
 41
0.85
 11
381.833632020729
 21
-500.49483470037251
 31
0.0
 73
     3
  0
LINE
  5
41B
  8
DATA
 62
     7
 10
393.4475000000001
 20
-482.65108470037279
 30
0.0
 11
393.4475000000001
 21
-500.65108470037262
 31
0.0
  0
LINE
  5
41C
  8
DATA
 62
     7
 10
385.94749999999971
 20
-500.65108470037262
 30
0.0
 11
385.94749999999971
 21
-482.65108470037279
 31
0.0
  0
LINE
  5
41D
  8
DATA
 62
     7
 10
372.44749999999971
 20
-482.15108470037262
 30
0.0
 11
372.44749999999971
 21
-475.15108470037262
 31
0.0
  0
LINE
  5
41E
  8
DATA
 62
     7
 10
378.1974999999992
 20
-480.65108470037262
 30
0.0
 11
378.1974999999992
 21
-476.65108470037262
 31
0.0
  0
LINE
  5
41F
  8
DATA
 62
     7
 10
367.69749999999971
 20
-470.65108470037262
 30
0.0
 11
367.69749999999971
 21
-466.65108470037262
 31
0.0
  0
LINE
  5
420
  8
DATA
 62
     7
 10
365.69749999999971
 20
-468.65108470037251
 30
0.0
 11
369.69749999999971
 21
-468.65108470037251
 31
0.0
  0
CIRCLE
  5
421
  8
DATA
 62
     7
 10
367.69749999999971
 20
-468.65108470037251
 30
0.0
 40
2.75
  0
ARC
  5
422
  8
DATA
 62
     7
 10
365.69749999999971
 20
-466.40108470037262
 30
0.0
 40
5.0
 50
90.0
 51
180.0
  0
ARC
  5
423
  8
DATA
 62
     7
 10
365.69749999999971
 20
-466.40108470037279
 30
0.0
 40
4.0
 50
90.0
 51
180.0
  0
LINE
  5
424
  8
DATA
 62
     7
 10
374.44749999999971
 20
-482.65108470037279
 30
0.0
 11
374.44749999999971
 21
-500.65108470037262
 31
0.0
  0
LINE
  5
425
  8
DATA
 62
     7
 10
370.94749999999971
 20
-506.65108470037251
 30
0.0
 11
370.94749999999971
 21
-474.65108470037279
 31
0.0
  0
LINE
  5
426
  8
DATA
 62
     7
 10
387.94749999999971
 20
-482.15108470037262
 30
0.0
 11
372.44749999999971
 21
-482.15108470037262
 31
0.0
  0
LINE
  5
427
  8
DATA
 62
     7
 10
372.44749999999971
 20
-475.15108470037262
 30
0.0
 11
387.94749999999971
 21
-475.15108470037262
 31
0.0
  0
LINE
  5
428
  8
DATA
 62
     7
 10
382.1974999999992
 20
-480.65108470037262
 30
0.0
 11
378.1974999999992
 21
-480.65108470037262
 31
0.0
  0
LINE
  5
429
  8
DATA
 62
     7
 10
378.1974999999992
 20
-476.65108470037262
 30
0.0
 11
382.1974999999992
 21
-476.65108470037262
 31
0.0
  0
LINE
  5
42A
  8
DATA
 62
     7
 10
374.44749999999971
 20
-493.65108470037251
 30
0.0
 11
385.94749999999971
 21
-493.65108470037251
 31
0.0
  0
LINE
  5
42B
  8
DATA
 62
     7
 10
374.44749999999971
 20
-495.65108470037262
 30
0.0
 11
385.94749999999971
 21
-495.65108470037262
 31
0.0
  0
LINE
  5
42C
  8
DATA
 62
     7
 10
374.44749999999971
 20
-497.15108470037262
 30
0.0
 11
385.94749999999971
 21
-497.15108470037262
 31
0.0
  0
CIRCLE
  5
42D
  8
DATA
 62
     7
 10
421.44749999999971
 20
-608.90108470037262
 30
0.0
 40
2.5
  0
LINE
  5
42E
  8
DATA
 62
     7
 10
418.69749999999971
 20
-514.90108470037262
 30
0.0
 11
418.69749999999971
 21
-466.40108470037262
 31
0.0
  0
LINE
  5
42F
  8
DATA
 62
     7
 10
417.69749999999971
 20
-514.90108470037262
 30
0.0
 11
417.69749999999971
 21
-466.40108470037262
 31
0.0
  0
LINE
  5
430
  8
DATA
 62
     7
 10
399.19749999999971
 20
-514.40108470037228
 30
0.0
 11
399.19749999999971
 21
-510.90108470037262
 31
0.0
  0
LINE
  5
431
  8
DATA
 62
     7
 10
397.4475000000001
 20
-512.65108470037262
 30
0.0
 11
400.94749999999971
 21
-512.65108470037262
 31
0.0
  0
CIRCLE
  5
432
  8
DATA
 62
     7
 10
399.19749999999971
 20
-512.65108470037262
 30
0.0
 40
2.5
  0
LINE
  5
433
  8
DATA
 62
     7
 10
411.6975000000001
 20
-514.65108470037251
 30
0.0
 11
411.6975000000001
 21
-510.65108470037251
 31
0.0
  0
LINE
  5
434
  8
DATA
 62
     7
 10
409.69749999999971
 20
-512.65108470037262
 30
0.0
 11
413.69749999999971
 21
-512.65108470037262
 31
0.0
  0
CIRCLE
  5
435
  8
DATA
 62
     7
 10
411.6975000000001
 20
-512.65108470037262
 30
0.0
 40
2.75
  0
ARC
  5
436
  8
DATA
 62
     7
 10
413.69749999999971
 20
-514.90108470037262
 30
0.0
 40
5.0
 50
270.0
 51
0.0
  0
ARC
  5
437
  8
DATA
 62
     7
 10
413.69749999999971
 20
-514.90108470037262
 30
0.0
 40
4.0
 50
270.0
 51
0.0
  0
LINE
  5
438
  8
DATA
 62
     7
 10
401.19749999999971
 20
-480.65108470037262
 30
0.0
 11
397.19749999999971
 21
-480.65108470037262
 31
0.0
  0
LINE
  5
439
  8
DATA
 62
     7
 10
401.19749999999971
 20
-476.65108470037262
 30
0.0
 11
401.19749999999971
 21
-480.65108470037262
 31
0.0
  0
LINE
  5
43A
  8
DATA
 62
     7
 10
397.19749999999971
 20
-476.65108470037262
 30
0.0
 11
401.19749999999971
 21
-476.65108470037262
 31
0.0
  0
LINE
  5
43B
  8
DATA
 62
     7
 10
397.19749999999971
 20
-480.65108470037262
 30
0.0
 11
397.19749999999971
 21
-476.65108470037262
 31
0.0
  0
LINE
  5
43C
  8
DATA
 62
     7
 10
411.6975000000001
 20
-470.65108470037262
 30
0.0
 11
411.6975000000001
 21
-466.65108470037262
 31
0.0
  0
LINE
  5
43D
  8
DATA
 62
     7
 10
409.69749999999971
 20
-468.65108470037251
 30
0.0
 11
413.69749999999971
 21
-468.65108470037251
 31
0.0
  0
CIRCLE
  5
43E
  8
DATA
 62
     7
 10
411.6975000000001
 20
-468.65108470037251
 30
0.0
 40
2.75
  0
ARC
  5
43F
  8
DATA
 62
     7
 10
413.69749999999971
 20
-466.40108470037262
 30
0.0
 40
5.0
 50
0.0
 51
90.0
  0
ARC
  5
440
  8
DATA
 62
     7
 10
413.69749999999971
 20
-466.40108470037262
 30
0.0
 40
4.0
 50
0.0
 51
90.0
  0
LINE
  5
441
  8
DATA
 62
     7
 10
406.94749999999971
 20
-475.15108470037262
 30
0.0
 11
406.94749999999971
 21
-482.15108470037262
 31
0.0
  0
LINE
  5
442
  8
DATA
 62
     7
 10
408.44749999999971
 20
-474.65108470037279
 30
0.0
 11
408.44749999999971
 21
-506.65108470037251
 31
0.0
  0
LINE
  5
443
  8
DATA
 62
     7
 10
404.94749999999971
 20
-500.65108470037262
 30
0.0
 11
404.94749999999971
 21
-482.65108470037279
 31
0.0
  0
ARC
  5
444
  8
DATA
 62
     7
 10
526.2199999999998
 20
-421.62434960000002
 30
0.0
 40
3.1799999999998358
 50
0.0
 51
90.0
  0
LINE
  5
445
  8
DATA
 62
     7
 10
528.4650640302674
 20
-419.37428556973299
 30
0.0
 11
458.91250000000031
 21
-437.04323949963077
 31
0.0
  0
LINE
  5
446
  8
DATA
 62
     7
 10
797.49999881250051
 20
-741.66665937499965
 30
0.0
 11
797.49999881250096
 21
-783.33332499999983
 31
0.0
  0
LINE
  5
447
  8
DATA
 62
     7
 10
702.50000118749995
 20
-741.66665937499965
 30
0.0
 11
702.50000118749995
 21
-783.33332499999983
 31
0.0
  0
LINE
  5
448
  8
DATA
 62
     7
 10
801.66649870833839
 20
-766.66665874999956
 30
0.0
 11
797.49999881250051
 21
-741.66665937499965
 31
0.0
  0
LINE
  5
449
  8
DATA
 62
     7
 10
793.33349891666364
 20
-766.66665874999956
 30
0.0
 11
797.49999881250051
 21
-741.66665937499965
 31
0.0
  0
LINE
  5
44A
  8
DATA
 62
     7
 10
706.66650108333806
 20
-766.66665874999956
 30
0.0
 11
702.50000118749995
 21
-741.66665937499965
 31
0.0
  0
LINE
  5
44B
  8
DATA
 62
     7
 10
698.3335012916632
 20
-766.66665874999956
 30
0.0
 11
702.50000118749995
 21
-741.66665937499965
 31
0.0
  0
TEXT
  5
44C
  8
DATA
 62
     7
 10
769.63529812321121
 20
-824.99999062499944
 30
0.0
 40
26.855468078613281
  1
RED
 41
0.85
 11
769.63529812321121
 21
-798.14452254638616
 31
0.0
 73
     3
  0
TEXT
  5
44D
  8
DATA
 62
     7
 10
676.49294721083015
 20
-824.99999062499944
 30
0.0
 40
26.855468078613281
  1
BLK
 41
0.85
 11
676.49294721083015
 21
-798.14452254638616
 31
0.0
 73
     3
  0
CIRCLE
  5
44E
  8
DATA
 62
     7
 10
860.00000000000034
 20
-701.24999999999909
 30
0.0
 40
13.75
  0
ARC
  5
44F
  8
DATA
 62
     7
 10
870.0
 20
-712.49999999999852
 30
0.0
 40
20.0
 50
270.0
 51
0.0
  0
CIRCLE
  5
450
  8
DATA
 62
     7
 10
860.00000000000034
 20
-481.2499999999996
 30
0.0
 40
13.75
  0
ARC
  5
451
  8
DATA
 62
     7
 10
870.0
 20
-469.99999999999909
 30
0.0
 40
20.0
 50
0.0
 51
90.0
  0
CIRCLE
  5
452
  8
DATA
 62
     7
 10
797.49999999999955
 20
-701.24999999999807
 30
0.0
 40
12.5
  0
LINE
  5
453
  8
DATA
 62
     7
 10
640.0
 20
-711.24999999999898
 30
0.0
 11
640.0
 21
-691.24999999999818
 31
0.0
  0
CIRCLE
  5
454
  8
DATA
 62
     7
 10
640.0
 20
-701.24999999999909
 30
0.0
 40
13.75
  0
LINE
  5
455
  8
DATA
 62
     7
 10
609.9999999999992
 20
-712.49999999999852
 30
0.0
 11
610.0000000000008
 21
-470.0
 31
0.0
  0
CIRCLE
  5
456
  8
DATA
 62
     7
 10
702.5
 20
-701.24999999999909
 30
0.0
 40
12.5
  0
LINE
  5
457
  8
DATA
 62
     7
 10
797.49999999999955
 20
-709.99999999999807
 30
0.0
 11
797.49999999999955
 21
-692.49999999999898
 31
0.0
  0
LINE
  5
458
  8
DATA
 62
     7
 10
860.00000000000034
 20
-711.24999999999898
 30
0.0
 11
860.00000000000034
 21
-691.24999999999818
 31
0.0
  0
LINE
  5
459
  8
DATA
 62
     7
 10
629.99999999999966
 20
-732.4999999999992
 30
0.0
 11
870.0
 21
-732.4999999999992
 31
0.0
  0
ARC
  5
45A
  8
DATA
 62
     7
 10
629.99999999999966
 20
-712.49999999999852
 30
0.0
 40
20.0
 50
180.0
 51
270.0
  0
LINE
  5
45B
  8
DATA
 62
     7
 10
836.24999999999909
 20
-548.74999999999909
 30
0.0
 11
758.75000000000034
 21
-548.74999999999909
 31
0.0
  0
LINE
  5
45C
  8
DATA
 62
     7
 10
758.75000000000034
 20
-513.75
 30
0.0
 11
836.24999999999909
 21
-513.75
 31
0.0
  0
LINE
  5
45D
  8
DATA
 62
     7
 10
768.75
 20
-606.24999999999841
 30
0.0
 11
826.25000000000023
 21
-606.24999999999841
 31
0.0
  0
LINE
  5
45E
  8
DATA
 62
     7
 10
768.75
 20
-616.2499999999992
 30
0.0
 11
826.25000000000023
 21
-616.24999999999795
 31
0.0
  0
LINE
  5
45F
  8
DATA
 62
     7
 10
768.75
 20
-623.74999999999966
 30
0.0
 11
826.25000000000023
 21
-623.74999999999852
 31
0.0
  0
LINE
  5
460
  8
DATA
 62
     7
 10
656.25000000000057
 20
-551.24999999999955
 30
0.0
 11
843.74999999999955
 21
-551.24999999999955
 31
0.0
  0
LINE
  5
461
  8
DATA
 62
     7
 10
656.25000000000057
 20
-511.2499999999996
 30
0.0
 11
843.74999999999955
 21
-511.2499999999996
 31
0.0
  0
LINE
  5
462
  8
DATA
 62
     7
 10
630.00000000000057
 20
-450.00000000000051
 30
0.0
 11
870.0
 21
-449.9999999999996
 31
0.0
  0
LINE
  5
463
  8
DATA
 62
     7
 10
656.25000000000057
 20
-641.24999999999852
 30
0.0
 11
843.74999999999955
 21
-641.24999999999852
 31
0.0
  0
LINE
  5
464
  8
DATA
 62
     7
 10
843.74999999999955
 20
-671.24999999999875
 30
0.0
 11
656.25000000000057
 21
-671.24999999999875
 31
0.0
  0
LINE
  5
465
  8
DATA
 62
     7
 10
807.49999999999955
 20
-541.2499999999992
 30
0.0
 11
787.4999999999992
 21
-541.2499999999992
 31
0.0
  0
LINE
  5
466
  8
DATA
 62
     7
 10
787.4999999999992
 20
-521.24999999999955
 30
0.0
 11
807.49999999999955
 21
-521.24999999999955
 31
0.0
  0
LINE
  5
467
  8
DATA
 62
     7
 10
788.75
 20
-701.24999999999807
 30
0.0
 11
806.25
 21
-701.24999999999807
 31
0.0
  0
LINE
  5
468
  8
DATA
 62
     7
 10
758.75000000000034
 20
-548.74999999999909
 30
0.0
 11
758.75000000000034
 21
-513.75
 31
0.0
  0
LINE
  5
469
  8
DATA
 62
     7
 10
787.4999999999992
 20
-541.2499999999992
 30
0.0
 11
787.4999999999992
 21
-521.24999999999955
 31
0.0
  0
LINE
  5
46A
  8
DATA
 62
     7
 10
741.24999999999955
 20
-513.75
 30
0.0
 11
741.24999999999955
 21
-548.74999999999909
 31
0.0
  0
LINE
  5
46B
  8
DATA
 62
     7
 10
712.49999999999909
 20
-521.24999999999955
 30
0.0
 11
712.49999999999909
 21
-541.2499999999992
 31
0.0
  0
TEXT
  5
46C
  8
DATA
 62
     7
 10
710.68066010364589
 20
-666.2499999999992
 30
0.0
 40
25.78125
  1
INPUT
 41
0.85
 11
710.68066010364589
 21
-640.4687499999992
 31
0.0
 73
     3
  0
LINE
  5
46D
  8
DATA
 62
     7
 10
768.75
 20
-551.24999999999955
 30
0.0
 11
768.75000000000125
 21
-641.24999999999852
 31
0.0
  0
LINE
  5
46E
  8
DATA
 62
     7
 10
731.24999999999955
 20
-641.24999999999852
 30
0.0
 11
731.24999999999955
 21
-551.24999999999955
 31
0.0
  0
LINE
  5
46F
  8
DATA
 62
     7
 10
663.75
 20
-548.74999999999909
 30
0.0
 11
663.75
 21
-513.75
 31
0.0
  0
LINE
  5
470
  8
DATA
 62
     7
 10
692.49999999999852
 20
-541.2499999999992
 30
0.0
 11
692.49999999999852
 21
-521.24999999999955
 31
0.0
  0
LINE
  5
471
  8
DATA
 62
     7
 10
640.0
 20
-491.24999999999909
 30
0.0
 11
640.0
 21
-471.24999999999972
 31
0.0
  0
LINE
  5
472
  8
DATA
 62
     7
 10
630.00000000000057
 20
-481.2499999999996
 30
0.0
 11
650.0
 21
-481.2499999999996
 31
0.0
  0
CIRCLE
  5
473
  8
DATA
 62
     7
 10
640.0
 20
-481.2499999999996
 30
0.0
 40
13.75
  0
ARC
  5
474
  8
DATA
 62
     7
 10
630.00000000000057
 20
-470.0
 30
0.0
 40
20.0
 50
90.0
 51
180.0
  0
LINE
  5
475
  8
DATA
 62
     7
 10
630.00000000000057
 20
-701.24999999999909
 30
0.0
 11
650.0
 21
-701.24999999999909
 31
0.0
  0
LINE
  5
476
  8
DATA
 62
     7
 10
673.75000000000057
 20
-551.24999999999955
 30
0.0
 11
673.75000000000057
 21
-641.24999999999852
 31
0.0
  0
LINE
  5
477
  8
DATA
 62
     7
 10
656.25000000000057
 20
-671.24999999999875
 30
0.0
 11
656.25000000000057
 21
-511.2499999999996
 31
0.0
  0
LINE
  5
478
  8
DATA
 62
     7
 10
741.24999999999955
 20
-548.74999999999909
 30
0.0
 11
663.75
 21
-548.74999999999909
 31
0.0
  0
LINE
  5
479
  8
DATA
 62
     7
 10
663.75
 20
-513.75
 30
0.0
 11
741.24999999999955
 21
-513.75
 31
0.0
  0
LINE
  5
47A
  8
DATA
 62
     7
 10
712.49999999999909
 20
-541.2499999999992
 30
0.0
 11
692.49999999999852
 21
-541.2499999999992
 31
0.0
  0
LINE
  5
47B
  8
DATA
 62
     7
 10
692.49999999999852
 20
-521.24999999999955
 30
0.0
 11
712.49999999999909
 21
-521.24999999999955
 31
0.0
  0
LINE
  5
47C
  8
DATA
 62
     7
 10
693.7500000000008
 20
-701.24999999999909
 30
0.0
 11
711.24999999999898
 21
-701.24999999999909
 31
0.0
  0
LINE
  5
47D
  8
DATA
 62
     7
 10
673.75000000000057
 20
-606.24999999999841
 30
0.0
 11
731.24999999999955
 21
-606.24999999999841
 31
0.0
  0
LINE
  5
47E
  8
DATA
 62
     7
 10
673.75000000000057
 20
-616.2499999999992
 30
0.0
 11
731.24999999999955
 21
-616.24999999999795
 31
0.0
  0
LINE
  5
47F
  8
DATA
 62
     7
 10
673.75000000000057
 20
-623.74999999999966
 30
0.0
 11
731.24999999999955
 21
-623.74999999999852
 31
0.0
  0
LINE
  5
480
  8
DATA
 62
     7
 10
807.49999999999955
 20
-521.24999999999955
 30
0.0
 11
807.49999999999955
 21
-541.2499999999992
 31
0.0
  0
LINE
  5
481
  8
DATA
 62
     7
 10
860.00000000000034
 20
-491.24999999999909
 30
0.0
 11
860.00000000000034
 21
-471.24999999999972
 31
0.0
  0
LINE
  5
482
  8
DATA
 62
     7
 10
850.00000000000102
 20
-481.2499999999996
 30
0.0
 11
870.00000000000023
 21
-481.2499999999996
 31
0.0
  0
LINE
  5
483
  8
DATA
 62
     7
 10
836.24999999999909
 20
-513.75
 30
0.0
 11
836.24999999999909
 21
-548.74999999999909
 31
0.0
  0
LINE
  5
484
  8
DATA
 62
     7
 10
850.00000000000102
 20
-701.24999999999909
 30
0.0
 11
870.00000000000023
 21
-701.24999999999909
 31
0.0
  0
LINE
  5
485
  8
DATA
 62
     7
 10
843.74999999999955
 20
-511.2499999999996
 30
0.0
 11
843.74999999999955
 21
-671.24999999999875
 31
0.0
  0
LINE
  5
486
  8
DATA
 62
     7
 10
826.2499999999992
 20
-641.24999999999852
 30
0.0
 11
826.2499999999992
 21
-551.24999999999955
 31
0.0
  0
LINE
  5
487
  8
DATA
 62
     7
 10
889.99999999999909
 20
-712.49999999999852
 30
0.0
 11
889.99999999999909
 21
-469.99999999999909
 31
0.0
  0
TEXT
  5
488
  8
DATA
 62
     7
 10
574.99999999999989
 20
-977.90431499999988
 30
0.0
 40
16.93333333333333
  1
2WAYスピーカ
 41
0.85
 11
574.99999999999989
 21
-960.97098166666649
 31
0.0
 73
     3
  0
TEXT
  5
489
  8
DATA
 62
     7
 10
599.99999999999989
 20
-1014.999765
 30
0.0
 40
25.399999999999999
  1
CONTROL 28 / 28-WH
 41
0.85
 11
599.99999999999989
 21
-989.59976499999993
 31
0.0
 73
     3
  0
LINE
  5
48A
  8
DATA
 62
     7
 10
-725.0
 20
125.0
 30
0.0
 11
-275.0
 21
125.0
 31
0.0
  0
TEXT
  5
48B
  8
DATA
 62
     7
 10
-711.66666666666674
 20
139.4166666666666
 30
0.0
 40
28.222222222222221
  1
Invisiball取付金具(壁用)
 41
0.85
 11
-711.66666666666674
 21
167.6388888888888
 31
0.0
 73
     3
  0
ARC
  5
48C
  8
DATA
 62
     7
 10
-509.07853122009482
 20
-572.04584573699867
 30
0.0
 40
0.3506614263003302
 50
307.64190249757968
 51
354.26701928941452
  0
LINE
  5
48D
  8
DATA
 62
     7
 10
-518.08569572002523
 20
-566.51998918672496
 30
0.0
 11
-516.44178972002521
 21
-562.60302118672496
 31
0.0
  0
LINE
  5
48E
  8
DATA
 62
     7
 10
-518.08569572002523
 20
-566.51998918672496
 30
0.0
 11
-519.7093177200253
 21
-562.60302118672496
 31
0.0
  0
LINE
  5
48F
  8
DATA
 62
     7
 10
-505.6244557200252
 20
-573.60302118672485
 30
0.0
 11
-505.6244557200252
 21
-562.60302118672496
 31
0.0
  0
LINE
  5
490
  8
DATA
 62
     7
 10
-503.51375372002519
 20
-562.60302118672496
 30
0.0
 11
-503.51375372002519
 21
-571.91852518672511
 31
0.0
  0
LINE
  5
491
  8
DATA
 62
     7
 10
-515.67056872002524
 20
-562.60302118672496
 30
0.0
 11
-515.67056872002524
 21
-571.91852518672511
 31
0.0
  0
LINE
  5
492
  8
DATA
 62
     7
 10
-513.6410467200252
 20
-562.60302118672496
 30
0.0
 11
-513.6410467200252
 21
-571.91852518672511
 31
0.0
  0
LINE
  5
493
  8
DATA
 62
     7
 10
-512.58569572002523
 20
-562.60302118672496
 30
0.0
 11
-512.58569572002523
 21
-573.60302118672485
 31
0.0
  0
LINE
  5
494
  8
DATA
 62
     7
 10
-510.7388287200252
 20
-563.63806618672515
 30
0.0
 11
-510.7388287200252
 21
-567.16944018672507
 31
0.0
  0
LINE
  5
495
  8
DATA
 62
     7
 10
-506.7803907200252
 20
-566.96510418672517
 30
0.0
 11
-506.7803907200252
 21
-564.38900318672518
 31
0.0
  0
LINE
  5
496
  8
DATA
 62
     7
 10
-508.7296237200253
 20
-564.125157186725
 30
0.0
 11
-508.7296237200253
 21
-566.68236018672485
 31
0.0
  0
ARC
  5
497
  8
DATA
 62
     7
 10
-516.07783272002519
 20
-570.77844118672499
 30
0.0
 40
2.8367387676846501
 50
264.69085622153352
 51
323.99119915423989
  0
LINE
  5
498
  8
DATA
 62
     7
 10
-517.21299972002521
 20
-570.15282718672518
 30
0.0
 11
-517.21299972002521
 21
-571.91850318672527
 31
0.0
  0
LINE
  5
499
  8
DATA
 62
     7
 10
-517.21299972002521
 20
-570.15282718672518
 30
0.0
 11
-519.03957172002515
 21
-570.15282718672518
 31
0.0
  0
LINE
  5
49A
  8
DATA
 62
     7
 10
-519.03957172002515
 20
-570.15282718672518
 30
0.0
 11
-519.03957172002515
 21
-571.91850318672527
 31
0.0
  0
ARC
  5
49B
  8
DATA
 62
     7
 10
-516.43791772002521
 20
-571.9423071867252
 30
0.0
 40
0.7677217088664127
 50
269.71184879274858
 51
1.775987005694275
  0
ARC
  5
49C
  8
DATA
 62
     7
 10
-516.44565072002524
 20
-571.9423071867252
 30
0.0
 40
0.7677177832054875
 50
178.22401299431681
 51
270.28815120724721
  0
ARC
  5
49D
  8
DATA
 62
     7
 10
-516.60278572002517
 20
-570.77844118672499
 30
0.0
 40
2.8367341606413041
 50
216.00880084575911
 51
275.30914377846523
  0
ARC
  5
49E
  8
DATA
 62
     7
 10
-517.75758772002519
 20
-571.85632018672527
 30
0.0
 40
1.2834802289938021
 50
182.77699544999379
 51
207.3596066671488
  0
CIRCLE
  5
49F
  8
DATA
 62
     7
 10
-517.97406772002535
 20
-568.0421361867252
 30
0.0
 40
1.0451980000000269
  0
LINE
  5
4A0
  8
DATA
 62
     7
 10
-500.1244557200252
 20
-573.6030101867251
 30
0.0
 11
-505.6244557200252
 21
-573.6030101867251
 31
0.0
  0
LINE
  5
4A1
  8
DATA
 62
     7
 10
-500.1244557200252
 20
-573.6030101867251
 30
0.0
 11
-500.1244557200252
 21
-570.15281618672509
 31
0.0
  0
LINE
  5
4A2
  8
DATA
 62
     7
 10
-500.1244557200252
 20
-570.15282718672518
 30
0.0
 11
-501.97131172002543
 21
-570.15282718672518
 31
0.0
  0
LINE
  5
4A3
  8
DATA
 62
     7
 10
-501.97131172002543
 20
-570.15282718672518
 30
0.0
 11
-501.97131172002543
 21
-571.91850318672527
 31
0.0
  0
LINE
  5
4A4
  8
DATA
 62
     7
 10
-512.58569572002523
 20
-573.6030101867251
 30
0.0
 11
-508.7296237200253
 21
-573.60299918672513
 31
0.0
  0
LINE
  5
4A5
  8
DATA
 62
     7
 10
-510.73883972002511
 20
-572.56795418672516
 30
0.0
 11
-509.74437372002529
 21
-572.56795418672516
 31
0.0
  0
LINE
  5
4A6
  8
DATA
 62
     7
 10
-510.7388287200252
 20
-572.56795418672516
 30
0.0
 11
-510.7388287200252
 21
-568.22478018672496
 31
0.0
  0
LINE
  5
4A7
  8
DATA
 62
     7
 10
-510.73883972002511
 20
-568.22478018672496
 30
0.0
 11
-509.74437372002529
 21
-568.22478018672496
 31
0.0
  0
LINE
  5
4A8
  8
DATA
 62
     7
 10
-508.7296237200253
 20
-572.08087418672505
 30
0.0
 11
-508.7296237200253
 21
-568.71186018672518
 31
0.0
  0
ARC
  5
4A9
  8
DATA
 62
     7
 10
-514.92303072002517
 20
-571.85632018672527
 30
0.0
 40
1.283478402651528
 50
332.6403933328528
 51
357.22300455000448
  0
ARC
  5
4AA
  8
DATA
 62
     7
 10
-502.7386717200252
 20
-571.9423071867252
 30
0.0
 40
0.7677217088664127
 50
269.71184879274858
 51
1.775987005693991
  0
ARC
  5
4AB
  8
DATA
 62
     7
 10
-502.7463937200252
 20
-571.9423071867252
 30
0.0
 40
0.7677177832056013
 50
178.22401299431709
 51
270.28815120724721
  0
LINE
  5
4AC
  8
DATA
 62
     7
 10
-506.78128172002511
 20
-571.83732318672514
 30
0.0
 11
-506.78128172002511
 21
-568.91482118672513
 31
0.0
  0
LINE
  5
4AD
  8
DATA
 62
     7
 10
-510.73883972002511
 20
-567.16944018672507
 30
0.0
 11
-509.74437372002529
 21
-567.16944018672507
 31
0.0
  0
ARC
  5
4AE
  8
DATA
 62
     7
 10
-508.8694557200252
 20
-571.5148031867252
 30
0.0
 40
2.0928725528898489
 50
273.83098160911379
 51
351.13514730980222
  0
LINE
  5
4AF
  8
DATA
 62
     7
 10
-515.67056872002524
 20
-562.60302118672496
 30
0.0
 11
-513.6410467200252
 21
-562.60302118672496
 31
0.0
  0
LINE
  5
4B0
  8
DATA
 62
     7
 10
-519.7093177200253
 20
-562.60302118672496
 30
0.0
 11
-516.44178972002521
 21
-562.60302118672496
 31
0.0
  0
LINE
  5
4B1
  8
DATA
 62
     7
 10
-505.6244557200252
 20
-562.60302118672496
 30
0.0
 11
-503.51375372002519
 21
-562.60302118672496
 31
0.0
  0
LINE
  5
4B2
  8
DATA
 62
     7
 10
-512.58569572002523
 20
-562.60302118672496
 30
0.0
 11
-508.708426579064
 21
-562.60303008983965
 31
0.0
  0
LINE
  5
4B3
  8
DATA
 62
     7
 10
-510.73883972002511
 20
-563.63807718672501
 30
0.0
 11
-509.74437372002529
 21
-563.63807718672501
 31
0.0
  0
ARC
  5
4B4
  8
DATA
 62
     7
 10
-508.84858872002519
 20
-564.68802718672521
 30
0.0
 40
2.0897029262026119
 50
8.2269238590168943
 51
86.154126692155259
  0
ARC
  5
4B5
  8
DATA
 62
     7
 10
-509.73263071116162
 20
-570.63889743007951
 30
0.0
 40
1.929092498719905
 50
269.65121993761181
 51
282.8264828068726
  0
ARC
  5
4B6
  8
DATA
 62
     7
 10
-509.51596308981198
 20
-571.45447952907489
 30
0.0
 40
1.086181694062561
 50
281.23310362266602
 51
306.86200889406501
  0
ARC
  5
4B7
  8
DATA
 62
     7
 10
-509.07853122009482
 20
-568.74688863645156
 30
0.0
 40
0.3506614263002887
 50
5.7329807106039947
 51
52.358097502420208
  0
ARC
  5
4B8
  8
DATA
 62
     7
 10
-509.73263071116162
 20
-570.15383694337061
 30
0.0
 40
1.9290924987199041
 50
77.173517193127381
 51
90.348780062388116
  0
ARC
  5
4B9
  8
DATA
 62
     7
 10
-509.51596308981198
 20
-569.33825484437534
 30
0.0
 40
1.086181694062613
 50
53.137991105934972
 51
78.766896377333978
  0
ARC
  5
4BA
  8
DATA
 62
     7
 10
-507.84572972002519
 20
-568.98677218672515
 30
0.0
 40
1.066876980305218
 50
3.867006359822351
 51
88.361634567899202
  0
ARC
  5
4BB
  8
DATA
 62
     7
 10
-507.84670872002511
 20
-566.85286018672514
 30
0.0
 40
1.0679371339424091
 50
271.68928210464122
 51
356.07828298265451
  0
ARC
  5
4BC
  8
DATA
 62
     7
 10
-509.07853122009482
 20
-566.64733173699858
 30
0.0
 40
0.35066142630042
 50
307.64190249756848
 51
354.26701928939781
  0
ARC
  5
4BD
  8
DATA
 62
     7
 10
-509.73263071116162
 20
-565.24038343007953
 30
0.0
 40
1.929092498719905
 50
269.65121993761181
 51
282.8264828068726
  0
ARC
  5
4BE
  8
DATA
 62
     7
 10
-509.51596308981198
 20
-566.05596552907502
 30
0.0
 40
1.086181694062561
 50
281.23310362266602
 51
306.86200889406859
  0
ARC
  5
4BF
  8
DATA
 62
     7
 10
-509.07853122009482
 20
-564.1601856364515
 30
0.0
 40
0.3506614263003001
 50
5.7329807106224804
 51
52.358097502434902
  0
ARC
  5
4C0
  8
DATA
 62
     7
 10
-509.73263071116162
 20
-565.56713394337066
 30
0.0
 40
1.9290924987199041
 50
77.173517193127381
 51
90.348780062388116
  0
ARC
  5
4C1
  8
DATA
 62
     7
 10
-509.51596308981198
 20
-564.75155184437529
 30
0.0
 40
1.086181694062613
 50
53.137991105934972
 51
78.766896377333978
  0
ARC
  5
4C2
  8
DATA
 62
     7
 10
391.86726283710431
 20
-744.22873694323334
 30
0.0
 40
0.6216270738959965
 50
307.64190249757382
 51
354.26701928940241
  0
LINE
  5
4C3
  8
DATA
 62
     7
 10
375.90001667813652
 20
-734.43290033138453
 30
0.0
 11
378.81421367813653
 21
-727.48918433138454
 31
0.0
  0
LINE
  5
4C4
  8
DATA
 62
     7
 10
375.90001667813652
 20
-734.43290033138453
 30
0.0
 11
373.02177767813669
 21
-727.48918433138454
 31
0.0
  0
LINE
  5
4C5
  8
DATA
 62
     7
 10
397.99039667813668
 20
-746.98918433138454
 30
0.0
 11
397.99039667813668
 21
-727.48918433138454
 31
0.0
  0
LINE
  5
4C6
  8
DATA
 62
     7
 10
401.73209567813672
 20
-727.48918433138454
 30
0.0
 11
401.73209567813672
 21
-744.00303233138459
 31
0.0
  0
LINE
  5
4C7
  8
DATA
 62
     7
 10
380.18137817813653
 20
-727.48918433138454
 30
0.0
 11
380.18137817813653
 21
-744.00303233138459
 31
0.0
  0
LINE
  5
4C8
  8
DATA
 62
     7
 10
383.77916717813662
 20
-727.48918433138454
 30
0.0
 11
383.77916717813662
 21
-744.00303233138459
 31
0.0
  0
LINE
  5
4C9
  8
DATA
 62
     7
 10
385.65001667813658
 20
-727.48918433138454
 30
0.0
 11
385.65001667813658
 21
-746.98918433138454
 31
0.0
  0
LINE
  5
4CA
  8
DATA
 62
     7
 10
388.92400817813677
 20
-729.32403683138455
 30
0.0
 11
388.92400817813677
 21
-735.58419983138469
 31
0.0
  0
LINE
  5
4CB
  8
DATA
 62
     7
 10
395.94123917813653
 20
-735.22196783138475
 30
0.0
 11
395.94123917813653
 21
-730.65524333138478
 31
0.0
  0
LINE
  5
4CC
  8
DATA
 62
     7
 10
392.48578067813668
 20
-730.18751633138459
 30
0.0
 11
392.48578067813668
 21
-734.72073983138455
 31
0.0
  0
ARC
  5
4CD
  8
DATA
 62
     7
 10
379.45941017813658
 20
-741.98197433138455
 30
0.0
 40
5.0287641790774114
 50
264.69085622153619
 51
323.9911991542408
  0
LINE
  5
4CE
  8
DATA
 62
     7
 10
377.44706867813647
 20
-740.87293133138473
 30
0.0
 11
377.44706867813647
 21
-744.00299333138457
 31
0.0
  0
LINE
  5
4CF
  8
DATA
 62
     7
 10
377.44706867813647
 20
-740.87293133138473
 30
0.0
 11
374.20905467813668
 21
-740.87293133138473
 31
0.0
  0
LINE
  5
4D0
  8
DATA
 62
     7
 10
374.20905467813668
 20
-740.87293133138473
 30
0.0
 11
374.20905467813668
 21
-744.00299333138457
 31
0.0
  0
ARC
  5
4D1
  8
DATA
 62
     7
 10
378.8210776781367
 20
-744.04519133138479
 30
0.0
 40
1.3609612111724521
 50
269.71184879275069
 51
1.775987005688477
  0
ARC
  5
4D2
  8
DATA
 62
     7
 10
378.8073691781367
 20
-744.04519133138479
 30
0.0
 40
1.3609542520462541
 50
178.22401299431951
 51
270.28815120724659
  0
ARC
  5
4D3
  8
DATA
 62
     7
 10
378.52881167813672
 20
-741.98197433138455
 30
0.0
 40
5.0287560120460162
 50
216.00880084575891
 51
275.30914377846398
  0
ARC
  5
4D4
  8
DATA
 62
     7
 10
376.48166267813667
 20
-743.89275983138464
 30
0.0
 40
2.275260405943607
 50
182.776995449992
 51
207.35960666714769
  0
CIRCLE
  5
4D5
  8
DATA
 62
     7
 10
376.09790267813668
 20
-737.1312518313847
 30
0.0
 40
1.852850999999986
  0
LINE
  5
4D6
  8
DATA
 62
     7
 10
407.74039667813668
 20
-746.98916483138453
 30
0.0
 11
397.99039667813668
 21
-746.98916483138453
 31
0.0
  0
LINE
  5
4D7
  8
DATA
 62
     7
 10
407.74039667813668
 20
-746.98916483138453
 30
0.0
 11
407.74039667813668
 21
-740.87291183138473
 31
0.0
  0
LINE
  5
4D8
  8
DATA
 62
     7
 10
407.74039667813668
 20
-740.87293133138473
 30
0.0
 11
404.46642467813672
 21
-740.87293133138473
 31
0.0
  0
LINE
  5
4D9
  8
DATA
 62
     7
 10
404.46642467813672
 20
-740.87293133138473
 30
0.0
 11
404.46642467813672
 21
-744.00299333138457
 31
0.0
  0
LINE
  5
4DA
  8
DATA
 62
     7
 10
385.65001667813658
 20
-746.98916483138453
 30
0.0
 11
392.48578067813668
 21
-746.98914533138475
 31
0.0
  0
LINE
  5
4DB
  8
DATA
 62
     7
 10
388.9239886781366
 20
-745.15429283138462
 30
0.0
 11
390.68690567813672
 21
-745.15429283138462
 31
0.0
  0
LINE
  5
4DC
  8
DATA
 62
     7
 10
388.92400817813677
 20
-745.15429283138462
 30
0.0
 11
388.92400817813677
 21
-737.45502983138454
 31
0.0
  0
LINE
  5
4DD
  8
DATA
 62
     7
 10
388.9239886781366
 20
-737.45502983138454
 30
0.0
 11
390.68690567813672
 21
-737.45502983138454
 31
0.0
  0
LINE
  5
4DE
  8
DATA
 62
     7
 10
392.48578067813668
 20
-744.29083283138459
 30
0.0
 11
392.48578067813668
 21
-738.31848983138468
 31
0.0
  0
ARC
  5
4DF
  8
DATA
 62
     7
 10
381.50655917813651
 20
-743.89275983138464
 30
0.0
 40
2.2752571683369198
 50
332.64039333285263
 51
357.22300455000419
  0
ARC
  5
4E0
  8
DATA
 62
     7
 10
403.10610467813649
 20
-744.04519133138479
 30
0.0
 40
1.3609612111724521
 50
269.71184879275069
 51
1.775987005688477
  0
ARC
  5
4E1
  8
DATA
 62
     7
 10
403.09241567813677
 20
-744.04519133138479
 30
0.0
 40
1.360954252046197
 50
178.22401299431939
 51
270.28815120724892
  0
LINE
  5
4E2
  8
DATA
 62
     7
 10
395.93965967813671
 20
-743.85908333138445
 30
0.0
 11
395.93965967813671
 21
-738.6782843313847
 31
0.0
  0
LINE
  5
4E3
  8
DATA
 62
     7
 10
388.9239886781366
 20
-735.58419983138469
 30
0.0
 11
390.68690567813672
 21
-735.58419983138469
 31
0.0
  0
ARC
  5
4E4
  8
DATA
 62
     7
 10
392.23789667813662
 20
-743.28734333138459
 30
0.0
 40
3.7100922528503761
 50
273.83098160911658
 51
351.13514730980222
  0
LINE
  5
4E5
  8
DATA
 62
     7
 10
380.18137817813653
 20
-727.48918433138454
 30
0.0
 11
383.77916717813662
 21
-727.48918433138454
 31
0.0
  0
LINE
  5
4E6
  8
DATA
 62
     7
 10
373.02177767813669
 20
-727.48918433138454
 30
0.0
 11
378.81421367813653
 21
-727.48918433138454
 31
0.0
  0
LINE
  5
4E7
  8
DATA
 62
     7
 10
397.99039667813668
 20
-727.48918433138454
 30
0.0
 11
401.73209567813672
 21
-727.48918433138454
 31
0.0
  0
LINE
  5
4E8
  8
DATA
 62
     7
 10
385.65001667813658
 20
-727.48918433138454
 30
0.0
 11
392.52335742802262
 21
-727.48920011417852
 31
0.0
  0
LINE
  5
4E9
  8
DATA
 62
     7
 10
388.9239886781366
 20
-729.32405633138455
 30
0.0
 11
390.68690567813672
 21
-729.32405633138455
 31
0.0
  0
ARC
  5
4EA
  8
DATA
 62
     7
 10
392.27488817813662
 20
-731.18533133138465
 30
0.0
 40
3.7044733691774758
 50
8.2269238590154217
 51
86.154126692152005
  0
ARC
  5
4EB
  8
DATA
 62
     7
 10
390.70772283021279
 20
-741.73460130824003
 30
0.0
 40
3.4197548840942922
 50
269.65121993761818
 51
282.82648280687289
  0
ARC
  5
4EC
  8
DATA
 62
     7
 10
391.09181543169672
 20
-743.18040593827754
 30
0.0
 40
1.92550391220183
 50
281.23310362265511
 51
306.86200889406092
  0
ARC
  5
4ED
  8
DATA
 62
     7
 10
391.86726283710431
 20
-738.38058571953616
 30
0.0
 40
0.6216270738960072
 50
5.7329807106079294
 51
52.358097502421998
  0
ARC
  5
4EE
  8
DATA
 62
     7
 10
390.70772283021279
 20
-740.87472135452958
 30
0.0
 40
3.4197548840944001
 50
77.173517193127495
 51
90.348780062381735
  0
ARC
  5
4EF
  8
DATA
 62
     7
 10
391.09181543169672
 20
-739.42891672449184
 30
0.0
 40
1.9255039122018101
 50
53.137991105938973
 51
78.76689637734259
  0
ARC
  5
4F0
  8
DATA
 62
     7
 10
394.05268367813659
 20
-738.80583383138469
 30
0.0
 40
1.8912819196317661
 50
3.867006359818232
 51
88.361634567901788
  0
ARC
  5
4F1
  8
DATA
 62
     7
 10
394.05094817813671
 20
-735.02298983138473
 30
0.0
 40
1.8931612828977371
 50
271.68928210464702
 51
356.07828298265838
  0
ARC
  5
4F2
  8
DATA
 62
     7
 10
391.86726283710431
 20
-734.65864394323307
 30
0.0
 40
0.6216270738961766
 50
307.64190249756098
 51
354.26701928938257
  0
ARC
  5
4F3
  8
DATA
 62
     7
 10
390.70772283021279
 20
-732.1645083082401
 30
0.0
 40
3.4197548840944059
 50
269.65121993761818
 51
282.82648280687249
  0
ARC
  5
4F4
  8
DATA
 62
     7
 10
391.09181543169672
 20
-733.61031293827773
 30
0.0
 40
1.925503912201719
 50
281.23310362265568
 51
306.86200889406302
  0
ARC
  5
4F5
  8
DATA
 62
     7
 10
391.86726283710431
 20
-730.2496122195364
 30
0.0
 40
0.6216270738960185
 50
5.7329807106183539
 51
52.358097502436692
  0
ARC
  5
4F6
  8
DATA
 62
     7
 10
390.70772283021279
 20
-732.74374785452915
 30
0.0
 40
3.4197548840942882
 50
77.173517193127054
 51
90.348780062381735
  0
ARC
  5
4F7
  8
DATA
 62
     7
 10
391.09181543169672
 20
-731.29794322449175
 30
0.0
 40
1.9255039122018101
 50
53.137991105938973
 51
78.766896377343215
  0
ENDSEC
  0
EOF
